Song name
# A B C D E F G H I J K L M N O P Q R S T U V W X Y Z

Capn Jazz - Ooh Do I Love You tab

Help us improve GuitareTab! Take a short survey!
Cap'n Jazz - Ooh Do I Love You (Acoustic)

this is a tricky one. i'm not sure if this is completely right. figure out the rhythm yourself


number 1
e--------------|
b--5--4--5--4--|
g--4--4--4--4--|
d--2--2--2--2--|
a--2--2--4--4--|
e--0--0--------|
mud muddy slush
slushy lawn
in the inbetween of the winter and spring and the lawn's
long gone


number 2
e--------------------------777777777/9-|
b--5--4-------5-4--5--4----000000000---|
g--4--4-------4-4--4--4----------------|
d--2--2-----2------2--2----999999999---|
a--2--2---2--------4--4----0----0------|
e--0--0--------------------------------|
people walking. lotsa people walking over the life in the mud on the sidewalk under my crawl.


number 3 (repeat 3 times)
e------777777777/9-|
b--5---000000000---|
g--4---------------|
d--2---999999999---|
a--4---0----0------|
e------------------|
under my crawl


number 4
e--------------|
b------5-------|
g--------4---4-|
d----2---------|
a--4-------2---|
e--------------|


number 5
e--------------|
b--5--4--5--4--|
g--4--4--4--4--|
d--2--2--2--2--|
a--2--2--4--4--|
e--0--0--------|
mud bubbles pop and
burst breath into the air.
where's the inbetween if everyone's a me. that there tree grew
outta me


number 6
e--------------------------777777777/9-|
b--5--4-------5-4--5--4----000000000---|
g--4--4-------4-4--4--4----------------|
d--2--2-----2------2--2----999999999---|
a--2--2---2--------4--4----0----0------|
e--0--0--------------------------------|
people talking. lotsa people talking. i'm hurt. you're hurt. my dad's hurt and haven't 
learned everyone's hurt.


number 7 (repeat 2 times)
e------777777777/9-|
b--5---000000000---|
g--4---------------|
d--2---999999999---|
a--4---0----0------|
e------------------|
everyone's hurt


number 8
e------7774444-0--|
b--5---0000000-0--|
g--4-----------2--|
d--2---9996666-2--|
a--4---0--0----0--|
e-----------------|


number 9
e-------------------------------0-|
b---------------------------------|
g-------------9-----8--2p1-2/4----|
d-----4h6-4-----------------------|
a-7p4-------7---------------------|
e-----------------7---------------|


number 10 (play twice before vocals enter and once after vocals exit)
e---------0-----|
b-5/7/5---0--5--|
g---------2--4--|
d-2/4/2---2--2--|
a-0-------0--2--|
e------------4--|
sure we're all smiles
seeing reptiles.
birds in bars. we measure up each species in our
heads
barely aware that we're so scared we measure up each species in
our heads


number 11 (the rhythm is very hard to notate so you have to listen to the song to get it right)
e--------------------------|
b--------------------------|
g--------------------------|
d--11-9--6--11-9--6--6/4/2-|
a--0--0--0--0--0--0--0-0-0-|
e--------------------------|
step on that li'l fucker's jaw. snap him in half like a wishbone. think to myself like 
always thinking.


number 12 (no guitar)

i want everything and two of some of this shit


number 13
e---------0-----|
b-5/7/5---0--5--|
g---------2--4--|
d-2/4/2---2--2--|
a-0-------0--2--|
e------------4--|
find my place in the apehouse.
see myself in their eyes. my fingers on their feet.
my possessive love somewhere in their embrace.


number 14 (this one i'm not sure about but it sounds ok)
e--4---2----|
b--0---5-5--|
g--2---4-4--|
d--2---2-2--|
a--4---0-2--|
e-----------|
my freedom's limitations in their swinging


number 15
e--0--0-|
b--0--0-|
g-------|
d--4--2-|
a--0--0-|
e-------|
and hollering.
i'm singing.
i'm hollering.
i'm singing.
i'm hollering.
i'm singing


number 16
e------------------|
b------5-------5---|
g--------4---4-----|
d----2-------------|
a--4-------2-------|
e------------------|
i'm hollering.

number 17 (repeated many times)
e--------------|
b----------(5)-|
g--------------|
d--11--9--6----|
a--0---0--0----|
e--------------|
i'm always bothering.
Related for Ooh Do I Love You tab