Song name
# A B C D E F G H I J K L M N O P Q R S T U V W X Y Z

Capn Jazz - Aok tab

Cap'n Jazz - AOK
(from: Boy 16 to 18... Age of Action)
Tabed by: Roger Lee (breadneck@juno.com)
Tuning: EADGBe
-------------------------------------------------------------------------------- part 1:
(palm muting for first 2 measures)

|----------------------------|
|----------------------------|
|---7------------------------|
|---7---5---9---7------------|
|---5---5---9---7------------|
|-------3---7---5------------|

*repeat a lot*

part 2:
some palm muting

|----------------------------|
|----------------------------|
|---1----4----6--------------|
|---2----5----7--------------|
|---2----5----7--------------|
|---0----3----5--------------|

solo thingy:

|-----------------------------------|
|---7---7h8---8h10--10h8---7h8------|
|-----7-----7------------7----------|
|-----------------------------------|
|-----------------------------------|
|-----------------------------------|

|-----------------------------------|
|---7---7h8---8h10--10h8---7h8------|
|-----7-----7------------7----------|
|-----------------------------------|
|-----------------------------------|
|-----------------------------------|

|-----------------------------------|
|---7---7h8---8h10--10h8---10--8--7-|
|-----7-----7--------------7---7--7-|
|-----------------------------------|
|-----------------------------------|
|-----------------------------------|

back to part 2:
some palm muting

|----------------------------|
|----------------------------|
|---1----4----6--------------|
|---2----5----7--------------|
|---2----5----7--------------|
|---0----3----5--------------|
Tap to rate this tab
 
# A B C D E F G H I J K L M N O P Q R S T U V W X Y Z