Song name
# A B C D E F G H I J K L M N O P Q R S T U V W X Y Z

Capra - Low Day tab

This is my very first tab so Im sorry if it sucks. I played it on my guitar 
and it sounds just about right, and i was too lazy to tab the solo. Hope you 
like it.

INTRO (played simultaneously)

   Guitar 1:
e|--5-3--0--------|-5-3--0--------|--5-3--0--------|--1--0----------|
B|--------3-1--3--|-------3-1--3--|--------3-1--3--|------3-1----1--|
G|----------------|---------------|----------------|------------2---|
D|----------------|---------------|----------------|----------------|
A|----------------|---------------|----------------|----------------|
E|----------------|---------------|----------------|----------------|

   Guitar 2:
e|--0-0--00000-0--|-0-0--00000-0--|--5-5--55555-5--|--5-5--55555-5--|
B|--1-1--11111-1--|-1-1--11111-1--|--6-6--66666-6--|--6-6--66666-6--|
G|----------------|---------------|----------------|----------------|
D|----------------|---------------|----------------|----------------|
A|----------------|---------------|----------------|----------------|
E|----------------|---------------|----------------|----------------|

VERSE

	Red, Blue, Green lights flicker undercover...
e|--0-0--|--0-0--|--5-5--|--5-5--|
B|--1-1--|--1-1--|--5-5--|--5-5--|
G|-------|-------|-------|-------|
D|-------|-------|-------|-------|
A|-------|-------|-------|-------|
E|-------|-------|-------|-------| Repeat x2

	We get a little lonesome, we get a little low sometimes...
e|--7-7--|--77-7--|
B|--8-8--|--88-8--|
G|-------|--------|
D|-------|--------|
A|-------|--------|
E|-------|--------|

CHORUS

	And what you say, just fades away, get down on a low day...
e|-------|-------|           e|--------3-|
B|-------|--1-1--|           B|--3-----3-|
G|--2-2--|--0-0--|           G|--2-------|
D|--3-3--|-------|           D|----------|
A|-------|-------|           A|----------|
E|-------|-------|Repeat x2  E|----------|

   
(This is after the solo)

Guitar 1:
e|--5-3--0--------|-5-3--0--------|--5-3--0--------|--1--0----------|
B|--------3-1--3--|-------3-1--3--|--------3-1--3--|------3-1----1--|
G|----------------|---------------|----------------|------------2---|
D|----------------|---------------|----------------|----------------|
A|----------------|---------------|----------------|----------------|
E|----------------|---------------|----------------|----------------|

   Guitar 2:
e|--0-0--00000-0--|-0-0--00000-0--|--5-5--55555-5--|--5-5--55555-5--|
B|--1-1--11111-1--|-1-1--11111-1--|--6-6--66666-6--|--6-6--66666-6--|
G|----------------|---------------|----------------|----------------|
D|----------------|---------------|----------------|----------------|
A|----------------|---------------|----------------|----------------|
E|----------------|---------------|----------------|----------------|
Tap to rate this tab
# A B C D E F G H I J K L M N O P Q R S T U V W X Y Z