Song name
# A B C D E F G H I J K L M N O P Q R S T U V W X Y Z

Capra - Low Day chords

Highlighted       Show chord diagrams
I found out there was no tab 4 this song so I did it by ear hope you guys like it!


   Intro:
e|--5-3--0--------|-5-3--0--------|--5-3--0--------|--1--0----------|
B|--------3-1--3--|-------3-1--3--|--------3-1--3--|------3-1----1--|
G|----------------|---------------|----------------|------------2---|
D|----------------|---------------|----------------|----------------|
A|----------------|---------------|----------------|----------------|
E|----------------|---------------|----------------|----------------|

C
Red, blue, green lights flicker undercover
Dm                       F
Miss me like no other miss me like no other
C
Blackout trailbrazing joking in the water
Dm                       F
Miss me like no other miss me like no other

G
We get a little lonesome
G
we get a little lone sometimes

CHORUS:

F             C
And what you say
            Dm
Just fades away           
             Am
Get down on a low day 
F             C
And what you say
            Dm
Just fades away           
             Am
Get down on a low day 
G 
Low low low low 

e|--5-3--0--------|-5-3--0--------|--5-3--0--------|--1--0----------|
B|--------3-1--3--|-------3-1--3--|--------3-1--3--|------3-1----1--|
G|----------------|---------------|----------------|------------2---|
D|----------------|---------------|----------------|----------------|
A|----------------|---------------|----------------|----------------|
E|----------------|---------------|----------------|----------------|


C                                               
Black dress gang of rouge She won't even bother
Dm                     F
Miss me like no other miss me like no other
C
Time laid back on the sea
Dm                        F      
Were gonna sail the world while we are fast asleep

G
We get a little lonesome
G
we get a little lone sometimes

CHORUS:

F             C
And what you say
            Dm
Just fades away           
             Am
Get down on a low day 
F             C
And what you say
            Dm
Just fades away           
             Am
Get down on a low day 
G 
Low low low low 

(After Solo)

C
I get mine I get mine
        Dm                    F
Little Gucci Little mama aint worth my time

G
We get a little lonesome
G
we get a little lone sometimes

Chorus:

F             C
And what you say
            Dm
Just fades away           
             Am
Get down on a low day 
F             C
And what you say
            Dm
Just fades away           
             Am
Get down on a low day 
G                  C
Low low low low
Tap to rate this tab
# A B C D E F G H I J K L M N O P Q R S T U V W X Y Z