Song name
# A B C D E F G H I J K L M N O P Q R S T U V W X Y Z

Captain Beefheart - Sun Zoom Spark tab

 
Guitar 1
Main riff - Verse & chorus

 e|-------------------------------------------------------------------|
 b|-9-------------------------------7h9-------------------------------|
 g|-9------9---------------11---9---7h9------9---------------11---9---|
 d|-7------9--------x-x-x--11---9---7-7------9--------x-x-x--11---9---| etc
 a|--------7--------x-x-x--9----7------------7--------x-x-x--9----7---|
 E|-------------------------------------------------------------------|

  "Sun zoom spark, sun zoom spark"
 e|---------------------------------------------------------------|
 b|---------------------------------------------------------------|
 g|-9--9---9--------9--9---9--------------------------------------|
 d|-9--9---9--------9--9---9--------------------------------------|
 a|-7--7---7--------7--7---7--------------------------------------|
 E|---------------------------------------------------------------|

solo riff
 e|---------------------------------------------------------------|
 b|---------------------------------------------------------------|
 g|-7h9-------------7h9-------------7h9-------------7h9-----------|
 d|-------9---------------9---------------9---------------9-------|
 a|------------7---------------7---------------7---------------7--| etc
 E|---------------------------------------------------------------|

Back to main riff
Tap to rate this tab
 
# A B C D E F G H I J K L M N O P Q R S T U V W X Y Z