Song name
# A B C D E F G H I J K L M N O P Q R S T U V W X Y Z

Captain Beefheart - Her Eyes Are A Blue Million Miles tab

-------------------------------------------------------------------------------
                      Captain Beefheart  & his magic band - Her eyes are a blue million miles
------------------------------------------------------------------------------

standard tuning
GUITAR 1 (PLAY X4)
e-----------------------------------------------------------------------------|
B-----------------------------------------------------------------------------|
G-----------------------------------------------------------------------------|
D------7----------------------------------------------------------------------|
A---7H9-7-H-9-P-7-S-5-H-7-P-5-------------------------------------------------|
E-----------------------------7-7---------------------------------------------|

GUITAR 2
e--------------------------------------------------------------------------------|
B---5---5----5---5---5----5---5----5---------------------------------------------|
G---7(BU)-7---7(BU)-7--7(BU)--7--7(BU)--7-5-5-H-7-P-5----------------------------|
D-------------------------------------------------7-7----------------------------|
A--------------------------------------------------------------------------------|
E--------------------------------------------------------------------------------|

MAIN RIFF PLAY X 2 AND PLAY GUITAR 2 AGAIN
E-----------------------------------------------------------------------------|
B----------6-6-5--------------------------------------------------------------|
G------5-7--------------------------------------------------------------------|
D--5-7------------------------------------------------------------------------|
A-----------------------------------------------------------------------------|
E-----------------------------------------------------------------------------|
Tap to rate this tab
# A B C D E F G H I J K L M N O P Q R S T U V W X Y Z