Song name
# A B C D E F G H I J K L M N O P Q R S T U V W X Y Z

Captain Beyond - Raging River Of Fear tab

5-9--9-8-4--------7-----7---------------------|
----8--------7-5-----------8------------------|
----------------------4--------10-------------|
-----------------------------------11---------|
----------------------------------------------|
----------------------------------------------|

------7----------7-------------|
---10-------10--------10-------|   2X
-9--------9---------9----------|
-------------------------------|
-------------------------------|
-------------------------------|
Tap to rate this tab
# A B C D E F G H I J K L M N O P Q R S T U V W X Y Z