Song name
# A B C D E F G H I J K L M N O P Q R S T U V W X Y Z

Captain Cleanoff - Air tab

Band: Captain Cleanoff 
Album: Captain Cleanoff 
Song: Air 



Code: 
. - palm mute           / - slide up to 
\ - slide down to       x  Staccato 
h - hammer on           p - pull off 
, - slight palm mute    () - ghost note, sustained note 
" - tremolo note        <> - Trill 
L  left channel only   R  right channel only 
* - see comment 

Suffixes for bend 
f - full bend       h - half bend 
q - quarter bend    t - tap bend 
^ - Hold bend       r - release bend 
~ - vibrato bend 

Suffixes for harmonic 
ph - pinched harmonic   n  natural/artificial harmonic 

Tuning C# G# C# F# A# D# 

Riff 1 (0:04) play 4 times 
|--------------| 
|--------------| 
|--------------| 
|-8\7/8--5--4--| 
|-6\5/6--3--2--| 
|--------------| 

Riff 2 (0:08) play 4 times 
|---------------------------| 
|---------------------------| 
|---------------------------| 
|---------------------------| 
|-5--5--1--1--3--3--6--6----| 
|-5--5--1--1--3--3--6--6----| 

Riff 1 x 1 (0:11) 
Riff 2 x 1 (0:15) 

Riff 3 (0:19) 
|---------------------------------| 
|---------------------------------| 
|---------------------------------| 
|---------------------------------| 
|-5---5---5---5---5---5---5---5---| 
|-5---5---5---5---5---5---5---5---| 

End.
Tap to rate this tab
# A B C D E F G H I J K L M N O P Q R S T U V W X Y Z