Song name
# A B C D E F G H I J K L M N O P Q R S T U V W X Y Z

Captain Cleanoff - Scatfest tab

Band: Captain Cleanoff
Album: Captain Cleanoff
Song: Scatfest


Code:
Suffixes for bend:
fb - full bend       hb - half bend
qb - quarter bend    t - tap bend
r - release bend

Suffixes for harmonic:
^ - pinched harmonic      n  natural harmonic

Suffixes for mute:
.  palm mute            x  staccato mute
, - light palm mute      ; - heavy palm mute

Other:
/ - slide up to            \ - slide down to       
h - hammer on              p - pull off
" - tremolo note           <> - Trill
* - see comment 

Tuning C# G# C# F# A# D#

Riff 1 (0:00) play 4 times
|---------------------------|
|---------------------------|
|---------------------------|
|-6666665566666655666666----|
|------------------------6--|
|------------------------6--|

Riff 2 (0:09) play 4 times
|---------------------------|
|---------------------------|
|---------------------------|
|-------------------10--10--|
|-0--0--9--9--6--6--8---8---|
|-0--0--9--9--6--6----------|

Riff 3 (0:16) play 4 times
|----------------------------------|
|----------------------------------|
|----------------------------------|
|----------------------------------|
|-----------------------5588888888-|
|-0000006699999999555555-----------|

Riff 2 x 1 (0:25)

Riff 4 (0:33) play 3 times
|-------------------------|
|-------------------------|
|-------------------------|
|-------------------3h6p3-|
|-------5h8p5-2h5p2-------|
|-6h9p6-------------------|

Ending (0:40)
|----------------------------|
|----------------------------|
|----------------------------|
|----------------------------|
|-------5h8p5-2h5p2-7-6-3-0--|
|-6h9p6-------------7-6-3-0--|
                    . . .

End.
Tap to rate this tab
 
# A B C D E F G H I J K L M N O P Q R S T U V W X Y Z