Song name
# A B C D E F G H I J K L M N O P Q R S T U V W X Y Z

Captain Squeegee And The Soap Suds - Securely Caged tab

/ & .. = slide
h = hammer on
p = pull off
~ = virbato or just hold it out
ph = pinch harmonic

unfortunately because its tab rhythms dont come across to well. so just listen to the 
and i sure it'll make more sense.

distorted Horn Chorus/ Pre-Chorus:
Fm
----------------------------------|
----------------------------------|
----------------------------------|
---3---3------------3---3---------|
-----------1-2-3------------1-2-3-|
-1---1---4--------1---1---4-------|

G#
--------------------------------|
--------------------------------|
---------------5-4--------------|
---6---6---4-6-----5-3----------|
---------6-------------5-3-2----|
-4---4-----------------------3~-|

Fm
----------------------------------|
----------------------------------|
----------------------------------|
---3---3------------3---3---------|
-----------1-2-3------------1-2-3-|
-1---1---4--------1---1---4-------|

G# A#
----------------------------|
----------------------------|
---------------5/7~---------|
---6---6---4-6------8-8-8-8-|
---------6----------8-8-8-8-|
-4---4--------------6-6-6-6-|


Verse & clean horn chorus:
Fm7 A7
---8------------1------------|
---9------------3------------|
---8------------1------------|
---10-----------3------3---2-|
-8------------1----3/4---3---|
------0-1-3-4----------------|

Fm7 A7
---8------------1------------|
---9------------3------------|
---8------------1------------|
---10-----------3--------2---|
-8------------1----3/4---3---|
------0-1-3-4----------------|

and those two repeat, but the 2nd is replaced by this during the verse.

Fm7 D#7
---8--------6~~--|
---9--------8~~--|
---8--------6~~--|
---10-------8~~--|
-8----------6h7~-|
------0-1--------|



0

Chorus:

-10---8---1/--10---8---1/--|
-10---10--3/--10---10--3/--|
-10---8---1/--10---8---1/--|
-10---10--3/--10---10--3/--|
------8---1/-------8---1/--|
---------------------------|

-10~--8~--7~--6~---------------|
-10~--10~-6~--5~---------------|
-10~--8~--7~--6~---------------|
-10~--10~-6~--5~--3--3--3------|
------8~----------3--3--3--4ph-|
------------------1--1--1------|

2nd clean horn chorus:

2x
---8------------------8-------------------------|
---9------------------9-------------------------|
---8------------------8-------------------------|
---10-----------------10------------2-3-5-------|
-8------------1-----8------------1--------2-3---|
------0-1-3-4------------0-1-3-4--------------0-|

bridge:

3x
---------------------------------------|
---------------------------------------|
---------------------------------------|
-3-3-3-3--3-3-3-3--6-6-6-6--5-5-5------|
-3-3-3-3--3-3-3-3--6-6-6-6--5-5-5-4ph~-|
-1-1-1-1--1-1-1-1--4-4-4-4--3-3-3------|

-------------------------------|
-------------------------------|
-------------------------------|
-3-3-3-3--3-3-3-3--6-6-6-6--8~-|
-3-3-3-3--3-3-3-3--6-6-6-6--8~-|
-1-1-1-1--1-1-1-1--4-4-4-4--6~-|

ending:

just ends with the clean horn chorus and a
-------|
-------|
-------|
-3-3-3-|
-3-3-3-|
-1-1-1-|
Tap to rate this tab
# A B C D E F G H I J K L M N O P Q R S T U V W X Y Z