Song name
# A B C D E F G H I J K L M N O P Q R S T U V W X Y Z

Capture The Crown - Bloodsuckers tab

Song: Bloodsuckers
Artist: Capture The Crown 
Album: Live Life EP
Drop B Tuning
B F# B E G# C#

Most of this maybe not right, I tried my best

(0:01)-(0:07)
|------------------------------------------------------------------------|
|------------------------------------------------------------------------|
|------------------------------------------------------------------------|
|--0~~~~~~~~~~~~---------------------------------------------------------|
|--0~~~~~~~~~~~~---------------------------------------------------------|
|--0~~~~~~~~~~~~---------------------------------------------------------|

(0:08)-(0:17)
|--------------------------------------------------------------------------|
|--------------------------------------------------------------------------|
|--------------------------------------------------------------------------|
|--------------------------------------------------------------------------|
|--------------------------------------------------------------------------|
|-1b-1--00-0--3--00-0-1-00-0-0-00-0-0---00-0-1---00-0-3--0--0--1---00-00-0-|

(0:18)-(0:33)                                     play on the first repeat
|-------------------------------------------------------------------|-------|
|-------------------------------------------------------------------|-------|
|-------------------------------------------------------------------|-------|
|-------------------------------------------------------------------|-------|
|-1-00-0--3--00-0-1-00-0-0-00-0-0--00-0-1--00-0-3--0---0--1-00-00-0-|-------|
|-1-00-0--3--00-0-1-00-0-0-00-0-0--00-0-1--00-0-3--0---0--1-00-00-0-|--1b---|

(0:34)-(0:50)
|-----------------------------------------------------------------|
|-----------------------------------------------------------------|
|-----------------------------------------------------------------|x2
|-----------------------------------------------------------------|
|-----------------------------------------------------------------|
|---1--00-0--3--00-0-1--00-0-0----1-00-0--3-00-0-1--00-00-0---3*--|

(0:51)-(1:07) repeat
|-------------------------------------------------------------------------|
|-------------------------------------------------------------------------|
|-------------------------------------------------------------------------|
|-------------------------------------------------------------------------|
|-000--000---0000---000--000-------000--000----0000----000--000-----------|
|-000--000---0000---000--000-------000--000----0000----000--000---3*------|
  ...  ...   ....   ...  ...       ...  ...    ....    ...  ...

(1:08)- (1:15)
Break

(1:16)-(1:32)
|---------------------------------------------------------------------------|
|---------------------------------------------------------------------------|
|---------------------------------------------------------------------------|
|---------------------------------------------------------------------------|
|5555-8888-33333333-5555-8888-33333333-5555-8888-33333333-00000000000-333333|
|5555-8888-33333333-5555-8888-33333333-5555-8888-33333333-00000000000-333333|

(1:33)-(1:40)
|-------------------------------------------------------------------------|
|-------------------------------------------------------------------------|
|-------------------------------------------------------------------------|
|-------------------------------------------------------------------------|
|--1--00-0--3--00-0-1---00-0-0---00-0-0--00-0-1---00-0-3--00-0-1--00-00-0-|
|--1--00-0--3--00-0-1---00-0-0---00-0-0--00-0-1---00-0-3--00-0-1--00-00-0-|

(1:40)-(1:57) repeat
|------------------------------------------------------------------|
|------------------------------------------------------------------|
|------------------------------------------------------------------|
|------------------------------------------------------------------|
|------------------------------------------------------------------|
|---1--00-0--3--00-0-1--00-0-0-----1-00-0--3-00-0-1--00-00-0---3*--|

(1:58)-(2:14)
|---------------------------------------------------------------------------|
|---------------------------------------------------------------------------|
|---------------------------------------------------------------------------|
|---------------------------------------------------------------------------|
|-000--000---0000---000--000------000--000----0000----000--000--------------|
|-000--000---0000---000--000------000--000----0000----000--000---3*---------|
  ...  ...   ....   ...  ...      ...  ...    ....    ...  ...

(2:15)-(2:22)
Break

(2:23)-(2:40)
|---------------------------------------------------------------------------|
|---------------------------------------------------------------------------|
|---------------------------------------------------------------------------|
|---------------------------------------------------------------------------|
|5555-8888-33333333-5555-8888-33333333-5555-8888-33333333-00000000000-333333|
|5555-8888-33333333-5555-8888-33333333-5555-8888-33333333-00000000000-333333|

(2:41)-(2:52)
|------------------------------------------------------------------------|
|------------------------------------------------------------------------|
|------------------------------------------------------------------------|
|--0~~~~~~~~~~~~0~~~~~~~~~~~~--------------------------------------------|
|--0~~~~~~~~~~~~0~~~~~~~~~~~~--------------------------------------------|
|--0~~~~~~~~~~~~0~~~~~~~~~~~~--------------------------------------------|

(2:53)-(3:03)
|------------------------------------------------------------------------|
|------------------------------------------------------------------------|
|------------------------------------------------------------------------|
|--------------------------------0~~~~~~~--------------------------------|
|--0-0-0-000-0-00-0-0-0-000-0-00-0~~~~~----------------------------------|
|--0-0-0-000-0-00-0-0-0-000-0-00-0~~~~~~~--------------------------------|
   . . . ... . .. . . . ... . ..

(3:04) -(3:10)
|------------------------------------------------------------------------|
|------------------------------------------------------------------------|
|------------------------------------------------------------------------|
|--5--4--1--4------------------------------------------------------------|
|--5--4--1--4------------------------------------------------------------|
|--5--4--1--4------------------------------------------------------------|

(3:11)-(3:41) 
|------------------------------------------------------------------------|
|------------------------------------------------------------------------|
|------------------------------------------------------------------------|
|------------------------------------------------------------------------|x2
|--0-0-0-000-0-0-0-0-0---------------------------------------------------|
|--0-0-0-000-0-0-0-0-0-0 0-0-00--1b--------------------------------------|
   . . . ... . . . . . 

Key
===================================

~   Hold Note
B  Bend note 
*  Pinch harmonic
.   Palm mute
Tap to rate this tab
# A B C D E F G H I J K L M N O P Q R S T U V W X Y Z