Song name
# A B C D E F G H I J K L M N O P Q R S T U V W X Y Z

Caramell - Caramelldansen tab

Caramelldansen!! (speedycake remix)



e]--------------------------------------------------------[
B]--------------------------------------------------------[
G]--------------------------------------------------------[
D]-------8-9-11-11-11--11-13-11--11-13-11-9-8-8-8--9-8----[
A]--9-11-----------------------------------------------9--[
E]--------------------------------------------------------[

e]------------------------------------------------------------[
B]------------------------------------------------------------[
G]------------------------------------------------------------[
D]-------8-9-11-11-11--11h13p11-13-11--9\8-8--8-9-8-----------[
A]--9-11--------------------------------------------9----9b^--[
E]------------------------------------------------------------[

then

e]-----------------------------------------[
B]-----------------------------------------[
G]--11-------------------------------------[
D]--11-(x10)--11--------13--------9--------[ X2
A]--9---------11-(x10)--13-(x10)--9-(x10)--[
E]------------9---------11--------7--------[

verse (strum these chords however you want, but listen for the timing)

e]--------------[
B]--------------[
G]--11------11--[  
D]--11--11--11--[  X2
A]--9---11--9---[
E]------9-------[


then the 'oh whoa whoaa':

e]----------------------[
B]----------------------[
G]----------------------[
D]----------------------[
A]--9-11-9-11/13--11-9--[
E]----------------------[

then the chorus:

e]-------------------------------------------------------------------------------------[
B]-------------------------------------------------------------------------------------[
G]--11-11-11--11/-13---13--13---11-13--15------11-11-11--11/-13---13--13---15--13--11--[
D]--11-11-11--11/-13---13--13---11-13--15------11-11-11--11/-13---13--13---15--13--11--[
A]--9--9--9---9-/-11---11--11---9--11--13------9--9--9---9-/-11---11--11---13--11--9---[
E]-------------------------------------------------------------------------------------[

e]-------------------------------------------------------------------------------------[
B]-------------------------------------------------------------------------------------[
G]--11-11-11--11/-13---13--13---11-13--15---18---15--13--11--11/-13--13-/-15--13--11---[
D]--11-11-11--11/-13---13--13---11-13--15---18---15--13--11--11/-13--13-/-15--13--11---[
A]--9--9--9---9-/-11---11--11---9--11--13---16---13--11--9---9-/-11--11-/-13--11--9----[
E]-------------------------------------------------------------------------------------[

then

e]--------------------------------------[
B]--------------------------------------[
G]--11----------------------------------[
D]--11-(x4)---11-------13-------9-------[ X2 (post chorus)
A]--9---------11-(x4)--13-(x4)--9-(x4)--[
E]------------9--------11-------7-------[

play all that in order

then play the verse through

then the chorus

then wait through the interlude

then the post chorus

then the chorus twice



END
 
hope you enjoyed!
Tap to rate this tab
 
# A B C D E F G H I J K L M N O P Q R S T U V W X Y Z