Song name
# A B C D E F G H I J K L M N O P Q R S T U V W X Y Z

Caramelos De Cianuro - Pegale Con El Martillo tab

Intro(just bass at first)

E------------------------------
B------------------------------
G------------------------------
D------------------------------
A------------------------------
E-3-3-6-6-3-3-6-6-3-3-3-3-3----

E------------------------------
B------------------------------
G------------------------------
D------------------------------
A-5-5-8-8-5-5-8-8-5-5-5-5-5----
E-3-3-6-6-3-3-6-6-3-3-3-3-3----

Verse

E------------------------------
B------------------------------
G------------------------------
D------------------------------
A------------------------------
E-3-3-6-6-3-3-6-6-3-3-3-3-3----

Riff(si me prestas tu martillo...(8))

E------------------------------
B------------------------------
G------------------------------
D---------5-5-6-6-7-7---7-6-7--
A-5-5-8-8-3-3-4-4-5-5---5-4-5--
E-3-3-6-6----------------------

After solo part

E------------------------------
B------------------------------
G------------------------------
D------------------------------
A-5-5---5-5--------------------
E-3-3---3-3--------------------

Bridge

E--------------------------------
B--------------------------------
G--------------------------------
D--------------------------------
A-7-7-8-8-7-7-88-7-7-8-8-7-7-88--
E-5-5-6-6-5-5-66-5-5-6-6-5-5-66--
Tap to rate this tab
# A B C D E F G H I J K L M N O P Q R S T U V W X Y Z