Guitaretab - guitar tabs
Song name
# A B C D E F G H I J K L M N O P Q R S T U V W X Y Z

Caramelos De Cianuro - El Martillo tab

El intro es muy facil
----------------------------------|
----------------------------------|
----------------------------------|
----------------------------------|
----------------------------------|
4-4-7-7-4-4-9-9-4-4-4-4-4---------|

se hace 2 veces y después:
----------------------------------|
----------------------------------|
----------------------------------|
----------------------------------|
----------------------------------|
4-4-7-7-4-4-9-9-4-4-4-4-4---------|

también 2 veces y luego 2 veces
----------------------------------|
----------------------------------|
----------------------------------|
----------------------------------|
----------------------------------|
4-4-7-7-4-4-9-9-4-4-4-4-4---------|

si me prestas tu martillo yo martillo mi triciclo para ver si se encamina
----------------------------------|
----------------------------------|
----------------------------------|
----------------------------------|
----------------------------------|
4-7-9-10-11-11-10-10-11-----------|

Pégale con el martillo (los últimos 6 ceros son mas rápidos)
---------------------------------|
---------------------------------|
---------------------------------|
---------------------------------|
---------------------------------|
0000000000000000000
de nuevo el intro 4 veces:
----------------------------------|
----------------------------------|
----------------------------------|
----------------------------------|
----------------------------------|
4-4-7-7-4-4-9-9-4-4-4-4-4---------|

Me acordaba que de niño martillaba si triciclo y de lo corta que es la vida:
----------------------------------|
----------------------------------|
----------------------------------|
----------------------------------|
----------------------------------|
4-7-9-10-11-11-10-10-11-----------|

pégale con el martillo:
[ Tab from: http://www.guitaretab.com/c/caramelos-de-cianuro/55684.html ]
----------------------------------|
----------------------------------|
----------------------------------|
----------------------------------|
----------------------------------|
------0--0--0--0------------------|

el intro  8 veces:
----------------------------------|
----------------------------------|
----------------------------------|
----------------------------------|
----------------------------------|
4-4-7-7-4-4-9-9-4-4-4-4-4---------|

Y después 4 veces
----------------------------------|
----------------------------------|
----------------------------------|
----------------------------------|
----------------------------------|
--0-0----0-0----------------------|

seguidamente  6 veces:
----------------------------------|
----------------------------------|
----------------------------------|
----------------------------------|
----------------------------------|
4-4-7-7-4-4-9-9-4-4-4-4-4---------|

el que diga que es por siempre solamente es porq miente aprovecha mientras vivas:
----------------------------------|
----------------------------------|
----------------------------------|
----------------------------------|
----------------------------------|
4-7-9-10-11-11-10-10-11-----------|

pégale con el martillo:

----------------------------------|
----------------------------------|
----------------------------------|
----------------------------------|
----------------------------------|
------0--0--0--0------------------|

El intro 2 veces:
----------------------------------|
----------------------------------|
----------------------------------|
----------------------------------|
----------------------------------|
4-4-7-7-4-4-9-9-4-4-4-4-4---------|

Me acordaba que de niño martillaba si triciclo y de lo corta que es la vida:
----------------------------------|
----------------------------------|
----------------------------------|
----------------------------------|
----------------------------------|
4-7-9-10-11-11-10-10-11-----------|

pégale con el martillo:

----------------------------------|
----------------------------------|
----------------------------------|
----------------------------------|
----------------------------------|
-------------0--------------------|
Related for El Martillo tab
Advertisement will be closed in 10 seconds