Song name
# A B C D E F G H I J K L M N O P Q R S T U V W X Y Z

Caramelos De Cianuro - Las Notas tab

Intro (Palm Muting):
e|-----------------------------------------------------|
B|-----------------------------------------------------|
G|-------------7--7--7--7------------------------------| 
D|-5--5--5--5--7--7--7--7--7--7--7--7--2--2--2--2------|
A|-5--5--5--5--5--5--5--5--7--7--7--7--2--2--2--2------|
E|-3--3--3--3--------------5--5--5--5--0--0--0--0------|

e|-----------------------------------------------------|
B|-----------------------------------------------------|
G|-------------7--7--7--7------------------------------| 
D|-5--5--5--5--7--7--7--7--7--7--7--7------------------|
A|-5--5--5--5--5--5--5--5--7--7--7--7------------------|
E|-3--3--3--3--------------5--5--5--5------------------|
	
Verso/Verse:
e|-----------------------------------------------------|
B|-----------------------------------------------------|
G|--------------------------5--5--5--5---7--7--7--7----| 
D|-5--5--5--5---7--7--7--7--5--5--5--5---7--7--7--7----|
A|-5--5--5--5---7--7--7--7--3--3--3--3---5--5--5--5----|
E|-3--3--3--3---5--5--5--5-----------------------------|

Toca el verso 10 veces/Play The verse for 10 times

Pre-coro/Pre-Chorus:
e|-------------------------------------------------------------------------------------|
B|-------------------------------------------------------------------------------------|
G|-------------2--2--2--2--------------5--5--5--5--------------------------7--7--7--7--|
D|-2--2--2--2--2--2--2--2--2--2--2--2--5--5--5--5--2--2--2--2--7--7--7--7--7--7--7--7--|
A|-2--2--2--2--0--0--0--0--2--2--2--2--3--3--3--3--2--2--2--2--7--7--7--7--5--5--5--5--|
E|-0--0--0--0--------------0--0--0--0--------------0--0--0--0--5--5--5--5--------------|

Toca el intro pero sin palm muting/The same as intro(Without Palm Muting)
e|-----------------------------------------------------|
B|-----------------------------------------------------|
G|-------------7--7--7--7------------------------------| 
D|-5--5--5--5--7--7--7--7--7--7--7--7--2--2--2--2------|
A|-5--5--5--5--5--5--5--5--7--7--7--7--2--2--2--2------|
E|-3--3--3--3--------------5--5--5--5--0--0--0--0------|

e|-----------------------------------------------------|
B|-----------------------------------------------------|
G|-------------7--7--7--7------------------------------| 
D|-5--5--5--5--7--7--7--7--7--7--7--7--2--2--2--2------|
A|-5--5--5--5--5--5--5--5--7--7--7--7--2--2--2--2------|
E|-3--3--3--3--------------5--5--5--5--0--0--0--0------|

e|-----------------------------------------------------|
B|-----------------------------------------------------|
G|-------------7--7--7--7------------------------------| 
D|-5--5--5--5--7--7--7--7--7--7--7--7--2--2--2--2------|
A|-5--5--5--5--5--5--5--5--7--7--7--7--2--2--2--2------|
E|-3--3--3--3--------------5--5--5--5--0--0--0--0------|


e|-----------------------------------------------------|
B|-----------------------------------------------------|
G|-------------7--7--7--7------------------------------| 
D|-5--5--5--5--7--7--7--7--7--7--7--7------------------|
A|-5--5--5--5--5--5--5--5--7--7--7--7------------------|
E|-3--3--3--3--------------5--5--5--5------------------|
	
Interlude:	
Bass Riff
e|--------------------------------------------|
B|--------------------------------------------|
G|--------------------------------------------|
D|--------------------------------------------|
A|--------------------3--3--------------5--5--|
E|--3--3--5--5--3--3--------3--3--5--5--------|

Guitar Riff
e|----------------------------------------------|
B|----------------------------------------------|
G|--------------------5--5--------------7--7----|
D|--5--5--7--7--5--5--5--5--5--5--7--7--7--7----|
A|--5--5--7--7--5--5--3--3--5--5--7--7--5--5----|
E|--3--3--5--5--3--3--------3--3--5--5----------|

Igual que el verso/Same as verse
e|-----------------------------------------------------|
B|-----------------------------------------------------|
G|--------------------------5--5--5--5---7--7--7--7----| 
D|-5--5--5--5---7--7--7--7--5--5--5--5---7--7--7--7----|
A|-5--5--5--5---7--7--7--7--3--3--3--3---5--5--5--5----|
E|-3--3--3--3---5--5--5--5-----------------------------|

Toca el verso /Play The verse 

Pre-coro/Pre-Chorus:
e|-------------------------------------------------------------------------------------|
B|-------------------------------------------------------------------------------------|
G|-------------2--2--2--2--------------5--5--5--5--------------------------7--7--7--7--|
D|-2--2--2--2--2--2--2--2--2--2--2--2--5--5--5--5--2--2--2--2--7--7--7--7--7--7--7--7--|
A|-2--2--2--2--0--0--0--0--2--2--2--2--3--3--3--3--2--2--2--2--7--7--7--7--5--5--5--5--|
E|-0--0--0--0--------------0--0--0--0--------------0--0--0--0--5--5--5--5--------------|

Toca el intro pero sin palm muting/The same as intro(Without Palm Muting)
e|-----------------------------------------------------|
B|-----------------------------------------------------|
G|-------------7--7--7--7------------------------------| 
D|-5--5--5--5--7--7--7--7--7--7--7--7--2--2--2--2------|
A|-5--5--5--5--5--5--5--5--7--7--7--7--2--2--2--2------|
E|-3--3--3--3--------------5--5--5--5--0--0--0--0------|

e|-----------------------------------------------------|
B|-----------------------------------------------------|
G|-------------7--7--7--7------------------------------| 
D|-5--5--5--5--7--7--7--7--7--7--7--7--2--2--2--2------|
A|-5--5--5--5--5--5--5--5--7--7--7--7--2--2--2--2------|
E|-3--3--3--3--------------5--5--5--5--0--0--0--0------|

e|-----------------------------------------------------|
B|-----------------------------------------------------|
G|-------------7--7--7--7------------------------------| 
D|-5--5--5--5--7--7--7--7--7--7--7--7--2--2--2--2------|
A|-5--5--5--5--5--5--5--5--7--7--7--7--2--2--2--2------|
E|-3--3--3--3--------------5--5--5--5--0--0--0--0------|

e|-----------------------------------------------------|
B|-----------------------------------------------------|
G|-------------7--7--7--7------------------------------| 
D|-5--5--5--5--7--7--7--7--7--7--7--7------------------|
A|-5--5--5--5--5--5--5--5--7--7--7--7------------------|
E|-3--3--3--3--------------5--5--5--5------------------|

Tap to rate this tab
 
# A B C D E F G H I J K L M N O P Q R S T U V W X Y Z