Song name
# A B C D E F G H I J K L M N O P Q R S T U V W X Y Z

Caramelos De Cianuro - Pepsi-pepsi tab

Mis Panas, esta es la musica de la promocion televisiva de este refresco, que corrio de 
de los caramelos. Tripeensela


Intro/Coro-distorsion baja
Pepsi pepsi atrévete a mas...
e|-----------------------------------------------------|
B|-----------------------------------------------------|
G|---------------------------7--7--7--7--9--9--9--9----|
D|-7--7--7--7---9--9--9--9---7--7--7--7--9--9--9--9----|x2
A|-7--7--7--7---9--9--9--9---5--5--5--5--7--7--7--7----|
E|-5--5--5--5---7--7--7--7-----------------------------|

Verso/Verse:
Rif:1__(Palm Muting):
e|------------------------------------------------|
B|------------------------------------------------|
G|-2--2--2--2--2--2--2--2--------------7--7--7--7-|x2
D|-2--2--2--2--2--2--2--2--4--4--4--4--7--7--7--7-|
A|-0--0--0--0--0--0--0--0--4--4--4--4--5--5--5--5-|
E|-------------------------2--2--2--2-------------|

Rif:2__(Palm Muting)                         (distorsion en overdrive)
e|-----------------------------------------------------------------|
B|-----------------------------------------------------------------|
G|-2--2--2--2--2--2--2--2--------------7--7--4--4--4--4------------|
D|-2--2--2--2--2--2--2--2--4--4--4--4--7--7--4--4--4--4--4--4--4--4|
A|-0--0--0--0--0--0--0--0--4--4--4--4--5--5--2--2--2--2--4--4--4--4|
E|-------------------------2--2--2--2--------------------2--2--2--2|

e|-------------------------------------------|
B|-------------------------------------------|
G|-4--4--4--4-7/6/2~ ~ ~ ~ ~ ~ ~ ------------|
D|-4--4--4--4-7/6/2~ ~ ~ ~ ~ ~ ~ ------------|
A|-2--2--2--2-5/4/0~ ~ ~ ~ ~ ~ ~ ------------|
E|-------------------------------------------|

Bueno ahí tienen.Fajense!
Tap to rate this tab
# A B C D E F G H I J K L M N O P Q R S T U V W X Y Z