Song name
# A B C D E F G H I J K L M N O P Q R S T U V W X Y Z

Caravan Palace - Queens tab

-----------------------------------------------------
               QUEENS - Caravan Palace
-----------------------------------------------------

Tabbed by: Todd794
Submitted: 11/01/2013
Caravan Palace official website: http://www.caravanpalace.com/

Tuning: Standard (EADGBe)

There appears to be a complete lack of Caravan Palace tabs anywhere on the 
internet, so I decided to change that.
I'm just posting the intro for now, since I'm not sure if I'll get around to 
tabbing the whole thing. But if I do, I'll submit it.
I aim to tab the full "Panic" album, but that will likely take a while.

(0:00-0:09)
e|-------------------------------------------------|
B|----3----3----3-----0-----3-----3-----0----------|
G|-------------------------------------------------|
D|-------------------------------------------------|
A|-2----2----2-----------2-----2-----4-----1--4--2-|
E|-----------------2-------------------------------|

(0:10-0:18)
e|--------------------------------------------------------------------------------------|
B|--------------------------------------------------------------------------------------|
G|-9--7--10--7-------------------------------------------6-------------------7--9--7----|
D|--------------4--9-------------4--9--------------6--9-------------------------------9-|
A|--------------------10b11------------10b11----9-----------10b11------9/11-------------|
E|--------------------------------------------------------------------------------------|

********************
b = bend up
/ = slide up
********************
Tap to rate this tab
 
# A B C D E F G H I J K L M N O P Q R S T U V W X Y Z