Guitaretab - guitar tabs
Song name
# A B C D E F G H I J K L M N O P Q R S T U V W X Y Z

Carbon Leaf - Nowadays tab

Tuning: Standard

      h - hammer on 
      p - pull off 
      b - bend string up
     pm - palm muting
      / - slide up
      \ - slide down

Intro and Verse:

   G                                C                 F  F# G
e-------------------------------------------------------------|
B-------------------------------------------------------------|
G------------0---------4p2p0---0----5-5-----------------------|
D-------0-0-----0-0----------4---0--5-5-------3-------3--4--5-|
A-----------------------------------3-3--5h3-----5----3--4--5-|
E--2h3------------------------------------------------1--2--3-|
 pm________|


Chorus:

B        E    A                      G
Na-na-now, we live it up lonely, but anyhow
[ Tab from: http://www.guitaretab.com/c/carbon-leaf/184064.html ]
B                E     A         G
I'll not complain, nowadays, but anyways

B        E    A                      G
Na-na-Now, we live it up lonely, high on the bow

B         E         A
Mice in a maze, nowadays


Bass, but can be played on guitar:

e------------------------|
B------------------------|
G------------------------|
D------------------------|
A------------------------|
E--5-2-3-5-2-3-5-2-3-5-3-|


Guitar Part Before Last Verse

e------------------------------------------------|
B------------------------------------------------|
G--------2----------------------2------4p2p0---0-|
D--0h2h4---0-2--0-----0---0h2h4---0-2--------4---|
A-----------------0h2----------------------------|
E------------------------------------------------|
Related for Nowadays tab
×
Nowadays