Song name
# A B C D E F G H I J K L M N O P Q R S T U V W X Y Z

Carbon Leaf - Grey Sky Eyes tab

e-----------------------------------------------------------|
b----------------------15--17-15------------------15--------|
g-----------14--14h16------------16-14----14h16------16-----|
d---12/16-----------------------------------------------17--|
a-----------------------------------------------------------|
E-----------------------------------------------------------|

e-----------------------------------------------------------|
b--------------------15--15h17-15-----------------15--------|
g--------14---14h16---------------16-14----14h16-----16-----|
d---16--------------------------------------------------17--|
a-----------------------------------------------------------|
e-----------------------------------------------------------|
Tap to rate this tab
 
# A B C D E F G H I J K L M N O P Q R S T U V W X Y Z