Song name
# A B C D E F G H I J K L M N O P Q R S T U V W X Y Z

Carbon Leaf - One Prarie Outpost chords

Highlighted       Show chord diagrams
-------------------------------------------------------------------------------
                             One Prarie Outpost - Carbon Leaf
-------------------------------------------------------------------------------
Tabbed by: John Corbett
E-mail: jtcorbett17@gmail.com

This is my first tab, but I'm pretty sure I got everything right. 

Tuning: Standard

Intro:

              Fmaj                        Dmin       Cmaj
e|--------1--------------------------1-----1---------0----0------------------|
B|--------1--------------------------3-----3---------1----1------------------|
G|--------2----0--2--3--2--0---------2-----2---------0----0------------------|
D|----3------3------------------0--------------------2----2------------------|
A|----------------------------------------------3----------------------------|
E|---------------------------------------------------------------------------|   x2


Play the intro chords over the 1st verse:

1st Verse:

Fmaj                Dmin    Cmaj
Not been here since I was a boy 

Fmaj                   Dmin    Cmaj
The sky unwrapped, the world my toy 

Fmaj    Dmin    Cmaj                Fmaj
A movie reel a million miles long 

Dmin   Cmaj
On and on...

Chorus:

Bbmaj                    Cmaj   Dmin
Scene after scene passes by my life

Bbmaj                     Amin     Cmaj
The window's a wound. The road is a knife

Bbmaj               Cmaj          Dmin
The irony, ask me, 'where have you been?'

Bbmaj         Amin
I don't know, I don't know

Cmaj                          Fmaj
Because I don't know where to begin


2nd Verse:

Fmaj        Dmin           Cmaj
Too much to do, too much to see

Fmaj              Dmin    Cmaj 
Pictures to take, people to meet 

Fmaj                 Dmin     Cmaj         Fmaj
When there's so much space in between 

Dmin          Cmaj
It overwhelms me

[Chorus:]

[Solo]

Fmaj                Dmin    Cmaj
Not been here since I was a boy 

Fmaj                       Dmin      Cmaj                
Now heart full of fear and a mask of painted joy 

Fmaj              Dmin             Cmaj                
So much for these youthful eyes to see 

Fmaj        Dmin      Cmaj                
So much for peace and tranquility 


Bbmaj                        Cmaj   Dmin
One Prairie Outpost, you are how I feel...

Bbmaj                          Amin          Cmaj
Alone in a flatland 'tween the dream and the real

Bbmaj              Cmaj            Dmin
The irony, ask me, 'where have you been?'

Bbmaj         Amin        
I don't know, I don't know

Cmaj                          Fmaj
Because I don't know where to begin

[intro:]


************************************

| /   slide up
| \   slide down
| H   hammer-on
| p   pull-off
| ~   vibrato
| +   harmonic
| x   Mute note
| B   Bend
| pb  Pre-bend
| br  Bend release
| pbr Pre-bend release
| brb Bend release bend

************************************
Tap to rate this tab
 
# A B C D E F G H I J K L M N O P Q R S T U V W X Y Z