Song name
# A B C D E F G H I J K L M N O P Q R S T U V W X Y Z

Carbon Leaf - Shes Gone For Good This Time tab

Standard tuning, no capo. There's way too many hammers/pull offs to include, so just 
listen to the song and it's pretty apparent when they're needed.

Intro
E|--0--2--------2--0--2-----0--3--2--0--------0-----0--------------0--3--2--0--|
B|--------3--3-----------3--------------3--2-----------------2--3--------------|
G|-----------------------------------------------2-----2--4--------------------|
D|-----------------------------------------------------------------------------|
A|-----------------------------------------------------------------------------|
E|-----------------------------------------------------------------------------|

E|--0--2--------2--0--2-----0--3--2--0--------------0--------------------------|
B|--------3--3-----------3--------------------2--3-----3--2--------------------|
G|--------------------------------------2--4-----------------4--2--------------|
D|-----------------------------------------------------------------4--2--4--0--|
A|-----------------------------------------------------------------------------|
E|-----------------------------------------------------------------------------|

Intro Part II

E|--------------------------------------------------------------------------|
B|--------------------------------------------------------------------------|
G|--2--------2-----------0--2--4--2--0-----2-----2--------------------------|
D|-----4--0-----0--2--4-----------------2--------------------0--2--4--2--0--|
A|--------------------------------------------2-----0--2--4-----------------|
E|--------------------------------------------------------------------------|

E|-----------------------------------------------------------------------------------|
B|-----------------------------------------------------------------------------------|
G|--2--------2-----------0--2--4--2--0--------4-----------2--------------------------|
D|-----4--0-----0--2--4-----------------5--5-----5--4--4-----4--2--4--2--0--------0--|
A|--------------------------------------------------------------------------2--0-----|
E|-----------------------------------------------------------------------------------|

Verse
E|--------------------------------------------------------------------------------|
B|--------------------------------------------------------------------------------|
G|--------------------------------------------------------------------------------|
D|--5--4--2--4--2--------0--5--4--2--4--2--0--------0--5--4--2--4--2--0--------0--|
A|-----------------2--0-----------------------2--0-----------------------2--0-----|
E|--------------------------------------------------------------------------------|

E|-----------------------------------------------|
B|-----------------------------------------------|
G|-----------0--2--4--2--0-----------------------|
D|--0--2--4-----------------2--4--2--0--------0--|
A|--------------------------------------2--0-----|
E|-----------------------------------------------|

The rest of the verse is DAGDAD
Tap to rate this tab
# A B C D E F G H I J K L M N O P Q R S T U V W X Y Z