Song name
# A B C D E F G H I J K L M N O P Q R S T U V W X Y Z

Carbon Leaf - Let Your Troubles Roll By tab

Help us improve GuitareTab! Take a short survey!
Let Your Troubles Roll By - Carbon Leaf
Tabbed by: navelog

This song is pretty simple.  Same two chords, G and C.  This is my first tab so bear 
me.

Capo on 2nd fret
Intro:


  G      C     G     C
-----3-----0-----3-----0---|
-----0-----1-----0-----1---|
-----0-----0-----0-----0---|
-----0-----2-----0-----2---|
-----2--3--3-----2--3--3---|
--3--3--------3--3---------|

--------------------------------------------|
--------------------------------------------|
--2/4-4--2/4-2r0-0-0-0h2-2/4-4-2/4-2r0-0-0--|
--------------------------------------------|
--------------------------------------------|
--------------------------------------------|

The rest of the song uses G and C.

E-mail me if you have any questions.  navelog@yahoo.com
Related for Let Your Troubles Roll By tab