Song name
# A B C D E F G H I J K L M N O P Q R S T U V W X Y Z

Carcass - Symposium Of Sickness tab

join the death/black metal tab mailing list by emailing 
        

                           Symposium of Sickness tabs

Symposium of Sickness
(Tune down 2.5 steps to B)

Thanks to Glenn and Daniel for this...
Tremolo picked intro: (6/4 time probably?)
|-----------------------------|-----------------------------|
|-----------------------------|-----------------------------|
|-1111-----------444444444444-|-----------------------------|
|------2222-------------------|-----------3333--------------|
|-----------3333--------------|-----------------------------|
|-----------------------------|-0000-3333------444444444444-|

|-----------------------------|-----------------------------|
|-----------------------------|-----------------------------|
|-1111-----------444444444444-|-----------------------------|
|------2222-------------------|-----------3333-6-----5-6----|
|-----------3333--------------|----------------6-----5-6----|
|-----------------------------|-0000-3333------4-----3-4----|

The brilliant verse riff:
|----------------------------------------|------------------------------|
|-------(p.h)----------------------------|-------(p.h)------------------|
|---------5~(p.h)------------------------|---------5~(p.h)--------------|
|-------------4~-------------------------|-------------4~---------------|
|-5---4----------------------4-----------|-5---4------------------------|
|-3---2--------------0-2-4-5---5-3-2-0-2-|-3---2------------3323323320--|

The "noxious, sully dolour..." riff...
|-----------------------------|
|-----------------------------|
|-------------------------7-6~|
|-------------------------5-4~|
|-5---4---5--7----4-5-4-------|
|-3---2-223--5---02-3-2-00----|
Tap to rate this tab
# A B C D E F G H I J K L M N O P Q R S T U V W X Y Z