Song name
# A B C D E F G H I J K L M N O P Q R S T U V W X Y Z

Carcass - Genital Grinder tab

Song: Genital Grinder
Band: Carcass
Album: Reek Of Putrefaction (1988)

Tabbed By: Scott Carlin

Here Is The Instrumental Song By Carcass Off Reek Of Putrefaction,
It's Very Easy To Play And It's Fun Too. Its 100% Correct,
It Took Me A While To Figure Out Though...Have Fun.....

Riff 1                 Riff 2
|-------------------||-----------------------------------|
|-------------------||-----------------------------------|
|-------------------||-----------------------------------|
|-2---2-------------||---2--3p2p0--------------/2--------|
|-2---2---3--6--5---||-2----------3p2p0-----------3--6-5-|
|-0---0---1--4--3---||-0----------------3p2p0-0---1--4-3-|

Riff 3
|--------------------------------------------------------|
|--------------------------------------------------------|
|--------------------------------------------------------|
|--------------------------------------------------------|
|-2--------------3--6---2--------------3--6--5-----------|
|-0-0-0-0-0-0-0--1--4---0-0-0-0-0-0-0--1--4--3-----------|
    . . . . .             . . . . . .

Playing Order
Riff 1 x4
Riff 2 x6
Riff 3 x4
Riff 2 x4
Riff 3 x4

PLEASE RATE THIS TAB!!!
Tap to rate this tab
# A B C D E F G H I J K L M N O P Q R S T U V W X Y Z