Song name
# A B C D E F G H I J K L M N O P Q R S T U V W X Y Z

Carcass - Hepatic Tissue Fermentation tab

join the death/black metal tab mailing list by emailing 
        

                        Hepatic Tissue Fermentation tabs

Hepatic Tissue Fermentation
(Tune down 2.5 steps to B)

Thanks are due to my brother for some of this...
Intro:
|--------------------------|-----------------------------|
|--------------------------|-----------------------------|
|--------------------------|-----------------------------|
|--------------------------|--------------------7-(tr8)--|
|-7777-10101010-9999-5--4--|-7777-10101010-9999----------|
|--------------------3--2--|-----------------------------|
  ssss  s s s s ssss e  e    ssss  s s s s ssss q

Chorus bit (just strum the last chord in time w/the song):
|-------------------------|
|-------------------------|
|-------------------------|
|-------------------------|
|-7--7--9\7-5-4--4--3-----|
|-5--5--7\5-3-2--2--1-----|

"Alcohol force-fed..." etc.
|-------------------------|
|-------------------------|  Not quite right, but it's close enough.
|-----------------4-5-7~~-|
|-------------------------|
|-2----5-4-3---2----------|
|-0----3-2-1---0----------|

The outro bit just uses power chords based on F# diminished, I think.
I'll type it up sometime.  The trill which fades out is:

|----------------|----------------|----------------|----------------|
|----------------|----------------|----------------|----------------|
|----------------|----------------|----------------|----------------|
|----------------|----------------|----------------|----------------|
|--9-8-7--(tr8)--|--8-7-6--(tr7)--|--7-6-5--(tr6)--|--6-5-4--(tr5)--|
|----------------|----------------|----------------|----------------|

("Inebriating melody" basically follows this pattern).
Tap to rate this tab
# A B C D E F G H I J K L M N O P Q R S T U V W X Y Z