Guitaretab - guitar tabs
Song name
# A B C D E F G H I J K L M N O P Q R S T U V W X Y Z

Cardiacs - Theres Good Cud tab

-------------------------------------------------------------------------------
			     THERE'S GOOD CUD - Cardiacs
-------------------------------------------------------------------------------
Tabbed by: The Mopô
From the album "Guns"
Official website: www.cardiacs.com

Tuning: Standard

Verse 1

C                      A       E         C       A       E
Wounded spawn from our devil's open sore
C             A      E            C         A         E
Was even more bloody than before

Chorus
     B     F#  D   Am C#    G#  A#    F   A   C#       F#   B    E
Said don't you get me don't you spoil the air with all your craziness
A         E       C    G    C    G
Don't you get me
C#       F#  B             E   A
Fuck you you don't you you get me!

(the little lick below comes after the last A chord. This is how I play it, so I strike 
chord and then continue the lick)
e--0--------------------------------|
B--2--------------------------------|
G--2---------0h2~-------------------|
D--2----0h2h4-----------------------|
A--0--------------------------------|
E-----------------------------------|

Verse 2
C                        A         E              C     A     E
There's good cud there's dead good sticker sing
C               A          E          C        A        E
Mercy alive hot dog love's a-winning

Chorus

B     F#  D   Am C#    G#  A#    F   A   C#       F#   B    E
Don't you get me don't you spoil the air with all your craziness
A         E       C    G    C    G     C    G     C     G
Don't get for all time
C#       F#    B       E  A      E    A    E    A    E   A    E
All this whole carcass of mine
[ Tab from: http://www.guitaretab.com/c/cardiacs/74536.html ]
e-------------------------00000000-0----00000000-0----|
B-------------------------22222222-0----22222222-0----|
G-------------------------22222222-1----22222222-1----|
D-------------------------22222222-2----22222222-2----|
A-------------------------00000000-2----00000000-2----|
E--55555555-0--5555555-0-----------0-------------0----|

Solo
(I tend to use a whammy pedal to achieve the high pitches in this, but below shows the 
in a lower octave. For the last note you can just hit the 12th fret if you don't have 24, 
I don't.)
   C  G C  G A#  F  C# G# C# G#   E  A   D   G  C G C G D# A# F# C# F# C#
e------------------------------------------------------------------------|
B----------------10------------------------------------------------------|
G--9--7-5--7-10-----10------------9------11-----12------15----18---------|
D------------------------------------11------9---------------------------|
A------------------------------------------------------------------------|
E------------------------------------------------------------------------|
   A E A E C G  D# A# D# A# F# C# A E A E A E A
e---------------18----------20----24------------|
B--17---20--------------------------------------|
G-----------------------------------------------|
D-----------------------------------------------|
A-----------------------------------------------|
E-----------------------------------------------|

(Then after the solo strike an A chord and dip the tremolo arm down, or bend the neck)

Verse 3

C             A     E             C       A       E
I'm a wastrel I'm a sister's boy
C               A          E           C        A        E
Mercy alive hot dog love's in oh joy

Chorus

     B     F#  D   Am C#    G#  A#    F   A   C#       F#   B    E
Said don't you get me don't you spoil the air with all your craziness
A         E       C    G    C    G     C    G     C     G
Don't you get me
C#      F#  B    E     A   E    A    E    A    E
Get someone else don't get me!

(Tim's voice trails off, then come back in with the final chords)

A     E   A    E     A    E     A
(me-----)

There you are, hope you enjoy it...

| /  slide up
| \  slide down
| h  hammer-on
| p  pull-off
| ~  vibrato
| +  harmonic
| x  Mute note
===============================================================================
Related for Theres Good Cud tab