Guitaretab - guitar tabs
Song name
# A B C D E F G H I J K L M N O P Q R S T U V W X Y Z

Cardiacs - Dead Mouse tab

----------------------------------------------------------------------------
			     DEAD MOUSE - Cardiacs
----------------------------------------------------------------------------

Tabbed by: The Mopô
From the album "Special Garage Concerts Vol 2"

An easy one, it's also on Toy World but with some different lyrics.


D  A  F  A#    Am  A#   G

C           D     E
Isn't it an awful shame?
C              D         E    C
I can't see me when it's raining
   D        E
It seems to be
C                D        E
Never stopped to notice

      C            D      E
And I try to find another way
     C              D     E
It's getting harder every day
C            D      E
try to find another way
     C              D     E
It's getting harder every day

[ Tab from: http://www.guitaretab.com/c/cardiacs/77782.html ]
D                      A      F
When you find out your not so bad
   A#
at all
Am     A#   G
after all


C    G    G#   C#   A#   F
Keep your dead mice with you

   C       G#      D#      F        G#    A#
e----------------4-4-3------------1-----4-----6---|
B--6-5---------4-------4--------1---2-1---4-3---6-|
G------5---6-5-----------3-3-2--------------------|
D--------5----------------------------------------|
A-------------------------------------------------|
E-------------------------------------------------|

Isn't it an awful shame?
I can't see me when it's raining
It seems to be
Never stopped to notice

And when I can't see your lavender
I won't see your lavender
And when I can't see your lavender
I won't see your lavender

When you find out your not so bad
at all

Keep your dead mice with you
Keep your dead mice with you
Keep your dead mice with you
Keep your dead mice with you
Related for Dead Mouse tab