Song name
# A B C D E F G H I J K L M N O P Q R S T U V W X Y Z

Cardigans - My Favourite Game Acoustic tab

The Cardigans - My Favourite Game (Acoustic Version)

Standard Tuning
Capo 3

Intro/Verse
   Am                     C/G                    D/F#                   F           G
e|----------------------|----------------------|----------------------|------------------------|
B|-----0h1----1p0-------|-------1----1p0-------|-------1----1p0-------|-------1-----------3----|
G|-------2----2-------2-|-------0----0-------0-|-------2----2-------2-|-------2-----------4----|
D|----2-----------(2)---|----2-----------(2)---|----0-----------(0)---|----3-----3-----5-----5-|
A|-0--------0-----------|----------------------|----------------------|------------------------|
E|----------------------|-3--------3-----------|-2--------2-----------|-1-----------3----------|

Prechorus
   Am                       F                        G                        E           G
e|------------------------|------------------------|------------------------|------------------------|
B|-------1-----------1----|-------1-----------1----|-------3-----------3----|-------0-----------3----|
G|-------2-----------2----|-------2-----------2----|-------4-----------4----|-------1-----------4----|
D|----2-----2-----2-----2-|----3-----3-----3-----3-|----5-----5-----5-----5-|----2-----2-----5-----5-|
A|-0-----------0----------|------------------------|------------------------|------------------------|
E|------------------------|-1-----------1----------|-3-----------3----------|-0-----------3----------|

Chorus
   Am                       F                        D/F#                     G
e|------------------------|------------------------|------------------------|------------------------|
B|-------1-----------1----|-------1-----------1----|-------1-----------1----|-------3-----------3----|
G|-------2-----------2----|-------2-----------2----|-------2-----------2----|-------4-----------4----|
D|----2-----2-----2-----2-|----3-----3-----3-----3-|----0-----0-----0-----0-|----5-----5-----5-----5-|
A|-0-----------0----------|------------------------|------------------------|------------------------|
E|------------------------|-1-----------1----------|-2-----------2----------|-3-----------3----------|

Ending1
   E7
e|-------------------------|
B|---------0-----3-3---0h3-|
G|---------1-----1-1---1---|
D|-----2-------------------|
A|-------------------------|
E|-0-------0---0-----0-----|

Ending2
   E7                               Am
e|-----------------------------0--------------------------------|
B|---------0-----3-3---------0-----------------0h1p0------------|
G|---------1-----1-1-----0h1---------------2---------2--------2-|
D|-----2-------------------------------2----------------------2-|
A|---------------------------------0-----------0--------------0-|
E|-0-------0---0-----0-----------------------------------b3-----|


Intro
Verse (4x)
PreChorus (2x)
Chorus (with Ending1)
Verse (4x)
PreChorus (2x)
Chorus (with Ending2)

End
Tap to rate this tab
# A B C D E F G H I J K L M N O P Q R S T U V W X Y Z