Song name
# A B C D E F G H I J K L M N O P Q R S T U V W X Y Z

Cardigans - Communication tab

Intro riff:

e------------------------------------------------|
B----------2h3------------3----------------------|
G--0---2--------------2--------2-----------------|
D----------------4-------------------------------|
A------------------------------------------------|
E------------------------------------------------|

e------------------------------------------------|
B----------2h3------------3----------------------|
G--0---2--------------2--------2-----------------|
D----------------0h4-----------------------------|
A------------------------------------------------|
E------------------------------------------------|

e------------------------------------------------|
B----------2b3-----------------------------------|
G--0---2-----------------------------------------|
D------------------------------------------------|
A------------------------------------------------|
E------------------------------------------------|

Solo 2:44


e------------------------------------------------|
B-----------2h3----------------------------------|
G---0---2----------------------------------------|
D-----------------4------------2-----------------|
A----------------------2---4-------2-------------|
E------------------------------------------------|

e------------------------------------------------|
B------------------------------------------------|
G---8h10r8---6---8s10---8---8h10r8---6---8s10---8|
D------------------------------------------------|
A------------------------------------------------|
E------------------------------------------------|

e--------------------------|
B--------------------------|
G---8h10r8---6---4---------|
D--------------------4h6---|
A--------------------------|
E--------------------------|

e------------------------------------------------|
B------------------------------------------------|
G---------4---8---8h10r8---6---8s10---8----------|
D---4h6------------------------------------------|
A------------------------------------------------|
E------------------------------------------------|

e------------------------------------------------|
B----------------------------------6--8--10--12--|
G---6---8---10---8---6---4---6h8-----------------|
D------------------------------------------------|
A------------------------------------------------|
E------------------------------------------------|

Tap to rate this tab
 
# A B C D E F G H I J K L M N O P Q R S T U V W X Y Z