Song name
# A B C D E F G H I J K L M N O P Q R S T U V W X Y Z

Cardigans - Little Black Cloud tab

Title: Little Black Cloud
Artist: The Cardigans
Album: Super Extra Gravity
Tabbed by: yours truly

Someone already tabbed the chords. This is just the intro.

E-000----------------------------------|
B-000--0-----0-----0---0-----0-----0---|
G-000----0-----0---------0-----0-------|
D-222------2-----2---0-----0-----0-----|
A-222----------------------------------|
E-000----------------------------------|


E--------------------------------------|
B---0-----0-----0---0-----0------------|
G-----0-----0---------0-----0----------|
D--------------------------------------|
A-3-----3-----3---2-----0--------------|
E-----------------------------3--------|


There are acoustic chords in the background (Em / G / D) but those aren't hard to figure 
The Em chord at the beginning is just a downstrum-upstrum-downstrum thing. For clarification.

It's easy as pie.

Enjoy.
Tap to rate this tab
# A B C D E F G H I J K L M N O P Q R S T U V W X Y Z