Song name
# A B C D E F G H I J K L M N O P Q R S T U V W X Y Z

Cardigans - Erase And Rewind tab

1|----------------------------|
2|----------------------------|
3|-2----------0---------------|
4|-2------------2--0--2/4---0-|
5|-0----0-2-3-----------------|


1|-----------------------|
2|-----------------------|
3|-------0---------------|
4|---------2-0-2-0-2/4-0-|
5|-0-2-3-----------------|

1|----------------------------|
2|----------------------------|
3|-2----------0---------------|
4|-2------------2--0--2/4---0-|
5|-0----0-2-3-----------------|


1|-----------------------|
2|-----------------------|
3|-------0---------------|
4|---------2-0-2-0-2/4-0-|
5|-0-2-3-----------------|


1|------------|
2|------------|
3|------0---2-|
4|-----0----2-|
5|-0-3----2-0-|
Tap to rate this tab
# A B C D E F G H I J K L M N O P Q R S T U V W X Y Z