Song name
# A B C D E F G H I J K L M N O P Q R S T U V W X Y Z

Career Soldiers - Dead End Youth tab

Dead End Youth - Career Soldiers
Tabbed by Ryan Johnson

* = let ring
ps = pick slide


E---------------------------------------------
B---------------------------------------------________
G-------------------9-9-9-9--6-6-6-6--11--9---        |
D-6--------6-6-6-6--9-9-9-9--6-6-6-6--11--9--- x3     | 
A-6-x5-----6-6-6-6--7-7-7-7--4-4-4-4--9---7---        |
E-4--------4-4-4-4----------------------------        | 
  *                                                   |x3
E---------------------------------------------        |
B---------------------------------------------        |
G-6-6-6-6--8-8-8-8--6-6-6-6--9-9-9-9----------        | 
D-6-6-6-6--8-8-8-8--6-6-6-6--9-9-9-9----------________|
A-4-4-4-4--6-6-6-6--4-4-4-4--7-7-7-7----------
E---------------------------------------------

E---------------------------|----------------------
B---------------------------|----------------------
G--------9-----6-----11-----|----------------------
D--6-----9-----6-----11--x2-|--6---------6------ps-
A--6-----7-----4-----9------|--6---------6------ps-
E--4------------------------|--4---------4------ps-
   x8    x8    x8    x8        *         * 
E--------------------------------------------------
B--------------------------------------------------
G-------9---------6---------9----6---8---6---9-----
D--6----9----6----6----6----9----6---8---6---9----- you can find the rhythm
A--6----7----6----4----6----7----4---6---4---7-----
E--4---------4---------4---------------------------

thats the song, u can find the order by yourslef, im too lazy to type it
there you go
Tap to rate this tab
# A B C D E F G H I J K L M N O P Q R S T U V W X Y Z