Song name
# A B C D E F G H I J K L M N O P Q R S T U V W X Y Z

Career Soldiers - Finding Freedom In Hopelessness tab

-------------------------------------------------------------------------------
			     FINDING FREEDOM IN HOPELESSNESS - The Career Soldiers
-------------------------------------------------------------------------------
Tabbed by: Max Wigley
Email: maxtw@mindspring.com

Tuning: standard


Main Riff/Verse Riff
e|-----------------------------------------------------------------------------|
B|-----------------------------------------------------------------------------|
G|---------------------55555--44444--------------------------------------------|
D|--22--77---22-0-22--55555--44444---------------------------------------------|
A|--22--77---22-0-22--33333--22222---------------------------------------------|
E|--00--55---00-0-00-----------------------------------------------------------|

Chorus Riff
e|--------------------------------------------------------------------------|
B|--------------------------------------------------------------------------|
G|------------9-7---55555--9-7--44444--333-222------------------------------|
D|---22222---9-7---55555--9-7--44444--333-222-------------------------------|
A|---22222---7-5---33333--7-5--22222--555-444-------------------------------|
E|---00000------------------------------------------------------------------|

Solo (really easy)
e|-----------------------------------------------------------------------------|
B|-----------------------------------------------------------------------------|
G|--9--11--12--14--12--11--9--9--7--5--9--7--5--4--5--7-- ~ 4------------------|
D|-----------------------------------------------------------------------------|
A|-----------------------------------------------------------------------------|
E|-----------------------------------------------------------------------------|

| /  slide up
| \  slide down
| h  hammer-on
| p  pull-off
| ~  vibrato
| +  harmonic
| x  Mute note
===============================================================================
Tap to rate this tab
# A B C D E F G H I J K L M N O P Q R S T U V W X Y Z