Song name
# A B C D E F G H I J K L M N O P Q R S T U V W X Y Z

Career Soldiers - Dont Play Your Rule tab

i only write the chords... u have to find out the rythm ((i'm too lazy!!))
during the song there are some palm mutes...you have to find
out them too! ((i'm very very lazy))


one two pogo!!

intro

|-----------------------------------------------------------------------|
|-----------------------------------------------------------------------|
|------6--4---6--4------------------------------------------------------|
|--6---6--4---6--4------------------------------------------------------|
|--6---4--2---4--2------------------------------------------------------|
|--4--------------------------------------------------------------------|

verse

|-----------------------------------------------------------------------|
|-----------------------------------------------------------------------|
|----6---4-3------------------------------------------------------------|
|--6-6-4-4-3------------------------------------------------------------|
|--6-4-4-2-1------------------------------------------------------------|
|--4---2----------------------------------------------------------------|


solo ((pick up and down very fast))

|-----------------------------------------------------------------------|
|-----------------------------------------------------------------------|
|-----------6-66666---------444-333-------------------------------------|
|---6-66666---------4-44444---------------------------------------------|
|-----------------------------------------------------------------------|
|-----------------------------------------------------------------------|

it's all here...
 if u have any question email me at whats_up90m@hotmail.it
Tap to rate this tab
# A B C D E F G H I J K L M N O P Q R S T U V W X Y Z