Song name
# A B C D E F G H I J K L M N O P Q R S T U V W X Y Z

Career Soldiers - This Is Our Scene tab

------------------------------------------------------------------------

                  THIS IS OUR SCENE - CAREER SOLDIERS

------------------------------------------------------------------------
 hi punx, i think this the best way to play this song... it's perfect!!
 i did my best to tab well this song... it's easy to play.
 it's just to do some practise.

 have fun!


 INTRO
|-----------------------------------------------------------------------|
|-----------------------------------------------------------------------|
|-----88-55-78----88-77-33----------------------------------------------| 2X
|--55-XX-XX-XX-55-XX-XX-XX----------------------------------------------|
|--XX-66-33-56-XX-66-55-11----------------------------------------------|
|--33----------33-------------------------------------------------------|


 VERSE
|-----------------------------------------------------------------------|
|-----------------------------------------------------------------------|
|-----88-55-78----88-77-33----------------------------------------------|
|--55-88-55-78-55-88-77-33----------------------------------------------| 6X
|--55-66-33-56-55-66-55-11----------------------------------------------|
|--33----------33-------------------------------------------------------|


 CHORUS
|-----------------------------------------------------------------------|
|-----------------------------------------------------------------------|
|-----55----88----55-33-22----------------------------------------------|
|--55-55-55-88-55-55-33-22----------------------------------------------| 2X
|--55-33-55-66-55-33-11-00----------------------------------------------|
|--33----33----33-------------------------------------------------------|


 VERSE
|-----------------------------------------------------------------------|
|-----------------------------------------------------------------------|
|-----88-55-78----88-77-33----------------------------------------------|
|--55-88-55-78-55-88-77-33----------------------------------------------| 4X
|--55-66-33-56-55-66-55-11----------------------------------------------|
|--33----------33-------------------------------------------------------|


 BRIDGE
|-----------------------------------------------------------------------|
|-----------------------------------------------------------------------|
|---------555555-333333-------------------------------------------------| 2X
|--555555-555555-333333-777777------------------------------------------|
|--555555-333333-111111-777777------------------------------------------|
|--333333---------------555555------------------------------------------|


 VERSE
|-----------------------------------------------------------------------|
|-----------------------------------------------------------------------|
|-----88-55-78----88-77-33----------------------------------------------|
|--55-88-55-78-55-88-77-33----------------------------------------------| 4X
|--55-66-33-56-55-66-55-11----------------------------------------------|
|--33----------33-------------------------------------------------------|


 CHORUS
|-----------------------------------------------------------------------|
|-----------------------------------------------------------------------|
|-----55----88----55-33-22----------------------------------------------|
|--55-55-55-88-55-55-33-22----------------------------------------------| 2X
|--55-33-55-66-55-33-11-00----------------------------------------------|
|--33----33----33-------------------------------------------------------|

 BRIDGE
|-----------------------------------------------------------------------|
|-----------------------------------------------------------------------|
|---------555555-333333-------------------------------------------------| 2X
|--555555-555555-333333-777777------------------------------------------|
|--555555-333333-111111-777777------------------------------------------|
|--333333---------------555555------------------------------------------|

 OUTRO
|-----------------------------------------------------------------------|
|-----------------------------------------------------------------------|
|-----88-55-78----88-77-33----------------------------------------------| 2X
|--55-XX-XX-XX-55-XX-XX-XX----------------------------------------------|
|--XX-66-33-56-XX-66-55-11----------------------------------------------|
|--33----------33-------------------------------------------------------|

|-----------------------------------------------------------------------|
|-----------------------------------------------------------------------|
|-----55----88----55-33-22----------------------------------------------|
|--55-55-55-88-55-55-33-22----------------------------------------------| 2X
|--55-33-55-66-55-33-11-00----------------------------------------------|
|--33----33----33-------------------------------------------------------|


if you have any question email me at whats_up90m@hotmail.it

one two fuck you!!!
Tap to rate this tab
# A B C D E F G H I J K L M N O P Q R S T U V W X Y Z