Song name
# A B C D E F G H I J K L M N O P Q R S T U V W X Y Z

Caribou - Hello Hammerheads tab

HELLO HAMMERHEADS

Band: Caribou
Album: The Milk Of Human Kindness

the whole song goes like this:

e----------------------|-------------------------|-------------------------|
B----------------------|-------------------------|-------------------------|
G----------------------|-------------------------|-------------------------|
D----------------------|-------------------------|-------------------------|
A----11---11---11---11-|----11----11----11----11-|----11----11----11----11-|
E--9----9----9----9----|-12----12----12----12----|-11----11----11----11----|


e----------------------|---------------------|---------------------|
B----------------------|---------------------|---------------------|
G----------------------|---------------------|---------------------|
D----------------------|---------------------|---------------------|
A----11---11---11---11-|----9----9----9----9-|---6----6----6----6--|
E--9----9----9----9----|-7----7----7----7----|-4----4----4----4----|


e----------------------|----------------------|
B----------------------|----------------------|
G----------------------|----------------------|
D----------------------|----------------------|
A----11---11---11---11-|----11---11---11---11-|
E--9----9----9----9----|--9----9----9----9----|


just keep on repeating it. during the instrumental parts try playing the B string too. and that's it!

MH.

Tap to rate this tab
# A B C D E F G H I J K L M N O P Q R S T U V W X Y Z