Guitaretab - guitar tabs
Song name
# A B C D E F G H I J K L M N O P Q R S T U V W X Y Z

Caribou - Melody Day tab

The way this is played live (with a full band) is quite different from the album
I used the Pink Room Session video as a reference to tab this which can be found at
From the Pink Room Session, they play in what appears to be the key of Bm. The album 
is in a higher key. This means if you want to play along with the album verson then you 
to
all the chords up two frets (making it the key of C#m). Anyway, here it goes..

These two notes are picked at the beginning. They have a bell like effect. I think Dan
achieves this with a combination of guitar effects and harmonics.

e|---------7------|
B|------7+--------|
G|----------------|
D|----------------|
A|----------------|
E|----------------|

The vocals, bass line and lead guitar then begin.

Bass
G|---------------------------------------------------------------------------|
D|---------------------------------------------------------------------------|
A|-2-2-2-2-------------5-5-5-5-7-7-7-7-7-7-----------------------------------|
E|---------2-2-2-2-2-2-------------------------------------------------------|
"Melody day what have I done..."
Lead
I can't figure what the lead guitarist is playing live exactly. If anybody has any ideas
free to contact me. This is something I came up with anyway.
e|--------------------2------------------------------------------------------|
B|-------3--------2-----2----------7-----------------------------------------|
G|---4-----4--------3-----3----7-----7------1---1----------------------------|
D|-----4-----4--4----------------7-----7------2------------------------------|
A|-2-------------------------5------------2----------------------------------|
E|---------------------------------------------------------------------------|

These notes are played once again after the second line of lyrics. If you listen to the
or video you can figure out when it is played through out the rest of the song.

e|---------7------|
B|------7+--------|
G|----------------|
D|----------------|
A|----------------|
E|----------------|

After "Then your smile it melts away again..." these chords are played.
	Bm	G		D		E
e|---------------------------------------------------------------------------|
B|--3------------------------------------------------------------------------|
G|--4---3-------7-------9----------------------------------------------------|
D|--4---4-------7-------9----------------------------------------------------|
A|--2---4-------5-------7----------------------------------------------------|
E|--2---2-------5-------7----------------------------------------------------|

Now you return back to what was played at the first verse.
Next is slightly different to what was played in the first chorus. The chords are played
different positions.

	Bm			D		E
e|---------------------------------------------------------------------------|
B|---------------------------------------------------------------------------|
G|--------------7------------------------------------------------------------|
D|--9-----------7-------17---------------------------------------------------|
A|--9-----------5-------17---------------------------------------------------|
E|--7-----------5-------19---------------------------------------------------|
[ Tab from: http://www.guitaretab.com/c/caribou/99136.html ]
Verse comes up once again but there is a variation in chords. If your following along
the video, this starts at 2:06.

	Bm	G		D		E
e|---------------------------------------------------------------------------|
B|--3------------------------3-----------------------------------------------|
G|--4---3-------7-------9----4---3-------7-----------------------------------|
D|--4---4-------7-------9----4---4-------7-----------------------------------|
A|--2---4-------5-------7----2---4-------5-----------------------------------|
E|--2---2-------5-------7----2---2-------5-----------------------------------|

    G	  D		 A      E
e|---------------------------------------------------------------------------|
B|---------------------------------------------------------------------------|
G|--4--7--------6-------9----4---7-------6-----------------------------------|
D|--5--7--------7-------9----5---7-------7-----------------------------------|
A|--5--5--------7-------7----5---5-------7-----------------------------------|
E|--3--5--------5-------7----3---5-------5-----------------------------------|


Interlude
	F		Bm		A
e|---------------------------------------------------------------------------|
B|----------3-------2--------------------------------------------------------|
G|--3-------4-------2--------------------------------------------------------|
D|--4-------4-------2--------------------------------------------------------|
A|--4-------2----------------------------------------------------------------|
E|--2-------2----------------------------------------------------------------|


	F		Bm		A  G
e|---------------------------------------------------------------------------|
B|----------3-------2--0-----------------------------------------------------|
G|--3-------4-------2--0-----------------------------------------------------|
D|--4-------4-------2--------------------------------------------------------|
A|--4-------2----------------------------------------------------------------|
E|--2-------2----------------------------------------------------------------|


Back to the chorus.

	Bm			D		E
e|---------------------------------------------------------------------------|
B|---------------------------------------------------------------------------|
G|--------------7------------------------------------------------------------|
D|--9-----------7-------17---------------------------------------------------|
A|--9-----------5-------17---------------------------------------------------|
E|--7-----------5-------19---------------------------------------------------| x4


The keys start here and seem to hover around Bm and D. You then finish on these two chords.

	A	G
e|---------------------------------------------------------------------------|
B|---------------------------------------------------------------------------|
G|---6----4------------------------------------------------------------------|
D|---7----5------------------------------------------------------------------|
A|---7----5------------------------------------------------------------------|
E|---5----3------------------------------------------------------------------|


| /  slide up
| \  slide down
| h  hammer-on
| p  pull-off
| ~  vibrato
| +  harmonic
| x  Mute note
===============================================================================

All comments and suggestions are appreciated. Please rate. Email me at benherbertson@gmail.com.
Related for Melody Day tab