Song name
# A B C D E F G H I J K L M N O P Q R S T U V W X Y Z

Carina Round - Backseat tab

e---------------------|-----------------|-----------------|-----------------|
B----8---------8------|---3-------3-----|---1-------1-----|-------1-------0-|
G---------9---------9-|-------4-------4-|-------2-------0-|---2-------2-----|
D-10---10---10---10---|-5---5---5---5---|-3---3---3---3---|-2---2---2---2---|
A---------------------|-----------------|-----------------|-----------------|
E---------------------|-----------------|-----------------|-----------------|

e-----------------|-----------------|
B-------3-------3-|-------1---------|
G---4-------4-----|---2-------------|
D-5---5---5---5---|-3---3-----------|
A-----------------|-----------------|
E-----------------|-----------------|

e---------------------|-----------------|-----------------|-----------------|
B----8---------8------|---3-------3-----|---1-------1-----|-------1-------0-|
G---------9---------9-|-------4-------4-|-------2-------0-|---2-------2-----|
D-10---10---10---10---|-5---5---5---5---|-3---3---3---3---|-2---2---2---2---|
A---------------------|-----------------|-----------------|-----------------|
E---------------------|-----------------|-----------------|-----------------|
We were sleeping in...  go, of our...    friends, scaring... friends.

e---------------------|-----------------|-----------------|-----------------|
B----8---------8------|---3-------3-----|---1-------1-----|-------1-------0-|
G---------9---------9-|-------4-------4-|-------2-------0-|---2-------2-----|
D-10---10---10---10---|-5---5---5---5---|-3---3---3---3---|-2---2---2---2---|
A---------------------|-----------------|-----------------|-----------------|
E---------------------|-----------------|-----------------|-----------------|
We were seeing clea...  eyes, and the... lashes,inter-      -twined.
                         
e-----------------|-----------------|-----------------|-----------------|
B-------3-------3-|-------1-------1-|-------1-------0-|-------3---------|
G---4-------4-----|---2-------2-----|---2-------2-----|---4-------------|
D-5---5---5---5---|-3---3---3---3---|-2---2---2---2---|-5---5-----------|
A-----------------|-----------------|-----------------|-----------------|
E-----------------|-----------------|-----------------|-----------------|
The things you...  backseet          of your mind       what you find.

e---------------------|-----------------|-----------------|-----------------|
B----8---------8------|---3-------3-----|---1-------1-----|-------1-------0-|
G---------9---------9-|-------4-------4-|-------2-------0-|---2-------2-----|
D-10---10---10---10---|-5---5---5---5---|-3---3---3---3---|-2---2---2---2---|
A---------------------|-----------------|-----------------|-----------------|
E---------------------|-----------------|-----------------|-----------------|
And we filled each...  snow. Full of     warm red alco-    -hol.

e---------------------|-----------------|-----------------|-----------------|
B----8---------8------|---3-------3-----|---1-------1-----|-------1-------0-|
G---------9---------9-|-------4-------4-|-------2-------0-|---2-------2-----|
D-10---10---10---10---|-5---5---5---5---|-3---3---3---3---|-2---2---2---2---|
A---------------------|-----------------|-----------------|-----------------|
E---------------------|-----------------|-----------------|-----------------|
We were learning to... still. And it     will. But un-     -til.  Do I

e-----------------|-----------------|-----------------|-----------------|
B-------3-------3-|-------1-------1-|-------1-------0-|-------3-------3-|
G---4-------4-----|---2-------2-----|---2-------2-----|---4-------4-----|
D-5---5---5---5---|-3---3---3---3---|-2---2---2---2---|-5---5---5---5---|
A-----------------|-----------------|-----------------|-----------------|
E-----------------|-----------------|-----------------|-----------------|
lie, in the        backseat, of your mind. Do I        lie, just a 

e-----------------|-----------------|-----------------|-----------------|
B-------1-------1-|-------1-------1-|-------3-------3-|-------1-------1-|
G---2-------2-----|---2-------2-----|---4-------4-----|---2-------2-----|
D-3---3---3---3---|-2---2---2---2---|-5---5---5---5---|-3---3---3---3---|
A-----------------|-----------------|-----------------|-----------------|
E-----------------|-----------------|-----------------|-----------------|
second, and we're  gone. Just an    imprint when we're done. Just a 

e-----------------|-----------------|-----------------|-----------------|
B-------1-------1-|-------3-------3-|-------1-------1-|-------1-------1-|
G---2-------2-----|---4-------4-----|---2-------2-----|---2-------2-----|
D-2---2---2---2---|-5---5---5---5---|-3---3---3---3---|-2---2---2---2---|
A-----------------|-----------------|-----------------|-----------------|
E-----------------|-----------------|-----------------|-----------------|
second and we're   gone. Just an    imprint when we're done.

C            G        F           Am
It should be forever, God told me.

F            Am G
We're born into the wrong time.
Tap to rate this tab
# A B C D E F G H I J K L M N O P Q R S T U V W X Y Z