Song name
# A B C D E F G H I J K L M N O P Q R S T U V W X Y Z

Carissas Wierd - Heather Rhodes tab

Looked at the others and they weren't completely right, so I made some adjustments 
and I'm certain this is right:

Tuned down one half step

Main
e--------------------------|
B--------------------------|
G--------------------------|
D---6--6--7--0--6--6--4--4-|
A--7--7--7--7--4--4--2--2--|
E--------------------------|


End  (3x)         
e|------------------- |
B|.-------0----------.|
G|------2---2-------- |
D|----2-------2------ |
A|.-0-----------0----.|
E|------------------- |


e|------------------------- |
B|--------0----(0)(0)--0--- |
G|------2---2---2--0---1--- |
D|----2---------2--0---2--- |
A|--0-----------0------2--- |
E|---------------------0--- |
Tap to rate this tab
# A B C D E F G H I J K L M N O P Q R S T U V W X Y Z