Carissas Wierd - Drunk With The Only Saints I Know tab

song	  : drunk with the only saints i know
artist    : carissa's wierd
tabbed by : oneshotnothing


standard tuning, 1/2 step down


GUITAR 1 - Intro

e-|------------------------------------|
b-|---------1-----------------1--------|
g-|------------0-----------------0-----|
d-|----0h2-------2-------0h2-------2-0-|
a-|--3-------------3-2-2-------------2-|
E-|-3-----3----------------------------|


e-|--------------------------------|
b-|----1-------1-------1---1---1---|
g-|----0-------0-------0---0---0---|
d-|----3-------3-------3---3---3---|
a-|3-3-3-3-3-3-3-3-3-3-3-3-3-3-3-3-|
E-|1-1-1-1-1-1-1-1-1-1-1-1-1-1-1-1-|


GUITAR 1 - VERSE

e-|--------------------------------|
b-|1-----------1---1-----------1---|
g-|0-----------0---0-----------0---|
d-|2-2-2-2-2-2-2-2-0-0-0-0-0-0-0-0-|
a-|3-3-3-3-3-3-3-3-2-2-2-2-2-2-2-2-|
E-|--------------------------------|


e-|--------------------------------|
b-|------------1---------------1---|
g-|------------0---------------0---|
d-|3-3-3-3-3-3-3-3-3-3-3-3-3-3-3-3-|
a-|3-3-3-3-3-3-3-3-3-3-3-3-3-3-3-3-|
E-|1-1-1-1-1-1-1-1-1-1-1-1-1-1-1-1-|


GUITAR 2 - VERSE - start after guitar 1 intro, repeat throughout

e-|--------------------------------|
b-|--------------------3-----3-----|
g-|----5-----5-------------------0-|
d-|--0---0-------0---0---0---------|
a-|7-------7---7---5-------5---5---|
E-|--------------------------------|


e-|--------------------------------|
b-|----1---------------1-----------|
g-|--2-----2-0---0---2-----2-0---0-|
d-|3-----3-----3---3-----3-----3---|
a-|--------------------------------|
E-|--------------------------------|


repeat as necessary, end on C
Tap to rate this tab
 
# A B C D E F G H I J K L M N O P Q R S T U V W X Y Z