Song name
# A B C D E F G H I J K L M N O P Q R S T U V W X Y Z

Carissas Wierd - Some Days Are Better Than Others tab

-------------------------------------------------------------------------------
                             Some Days Are Better Than Others- Carissa's Wierd
-------------------------------------------------------------------------------
Tabbed by: ivadell
E-mail: sadstyle36@hotmail.com

Tuning: standard, 1/2 step down


e|---------------------------------------------------------------------------|
B|-------0------0----------0------0--------0---0------0------0---0------0----|
G|-----6------6---6------6------6---6--------6------6---6------6------6---6--|
D|---7-----------------7-----------------------------------------------------|
A|-0--------0--------0--------0----------7--------7--------7--------7--------|
E|---------------------------------------------------------------------------|

------------------------------------|
-------0--------0--------0--------0-|
-----6--------6--------6--------6---|
---7--------7--------7--------7-----|
-5--------5--------5--------5-------|
------------------------------------|



(some days are better than others...)

e|-0---0---0---0-|
B|-0---0---3---0-|
G|-2---1---2---2-|
D|-2---2---0---2-|
A|-0---2---x---0-|
E|-x---0---x---x-|
Tap to rate this tab
 
# A B C D E F G H I J K L M N O P Q R S T U V W X Y Z