Song name
# A B C D E F G H I J K L M N O P Q R S T U V W X Y Z

Carissas Wierd - So You Wanna Be A Superhero tab

-------------------------------------------------------------------------------
                             So You Wanna Be A Superhero - Carissa's Wierd
-------------------------------------------------------------------------------
Tabbed by: ivadell      
E-mail: sadstyle36@hotmail.com

Tuning: DADGBE, Capo 1


e|--------------|
B|--------------|
G|--------------|
D|-12---11---9--|
A|-x----x----x--|
D|-9----7----5--|

e|----------------------------------------------------------------------|
B|----------------------------------------------------------------------|
G|----------------------------------------------------------------------|
D|-7-7-7-7-7-7-7-7--4-4-4--5-5-5-5-5--0-0-0-0-0-0-0-0-0-0-0--0-0-0--0---|
A|-5-5-5-5-5-5-5-5--5-5-5--5-5-5-5-5--0-0-0-0-0-0-0-0-0-0-0--4-4-4--0-0-|
D|-5-5-5-5-5-5-5-5--5-5-5--5-5-5-5-5--7-7-7-7-7-7-7-7-7-7-7--7-7-7--7-0-|
Tap to rate this tab
# A B C D E F G H I J K L M N O P Q R S T U V W X Y Z