Song name
# A B C D E F G H I J K L M N O P Q R S T U V W X Y Z

Carissas Wierd - Heather Rhodes tab

Played through the entire song except the end
e--------------------------|
B--------------------------|
G--------------------------|
D---5--5--6--0--5--5--3--3-|
A--6--6--6--6--3--3--1--1--|
E--------------------------|


End  (4x)         
e|------------------- |
B|.------------------.|
G|--------2---------- |
D|------6----6------- |
A|.---6--------6-----.|
E|--4------------4--- |


end on
e|----||
B|----||
G|----||
D|-6--||
A|-6--||
E|-4--||
Tap to rate this tab
 
# A B C D E F G H I J K L M N O P Q R S T U V W X Y Z