Song name
# A B C D E F G H I J K L M N O P Q R S T U V W X Y Z

Carissas Wierd - A New Holiday tab

Song:	A New Holiday (November 16th)
Band:	Carissa's Wierd
Album:	Songs about Leaving
**Another one I found after searching long and far online.


 Verse
e---------------------------------|
B---------------------------------|
G-3-4-3-4-3-4-3-4-3-4-3-4---------|
D-4-4-4-4-4-4-4-4-4-4-4-4---------|
A---------------------------------|
E---------------------------------|


 Chorus
e--------------------------------|
B--------------------------------|
G-4~--3~--4~--3~--4~--3~--4~-----|
D-4~--4~--4~--4~--4~--4~--4~-----|
A-2~--2~--2~--2~--2~--2~--2~-----|
E--------------------------------|


verse
chorus
verse
chorus
verse
end (strum chorus chords)
Tap to rate this tab
# A B C D E F G H I J K L M N O P Q R S T U V W X Y Z