Carl Douglas - Kung Fu Fighting tab

|--10-10-10-10--8-8--5-5-8--|
|--10-10-10-10--8-8--5-5-8--|
|---------------------------|
|---------------------------|
|---------------------------|
|---------------------------|
             OR
|---------------------------|
|---------------------------|
|--7-7-7-7--5-5--2-2-5------|
|--5-5-5-5--3-3--0-0-3------|
|---------------------------|
|---------------------------|

Standard Tuning... e/B/G/D/A/E
There are heaps of other ways to do it
but i though these ^^^2^^^ were the easiest...

This is my 1st tab :p
Tap to rate this tab
 
# A B C D E F G H I J K L M N O P Q R S T U V W X Y Z