Song name
# A B C D E F G H I J K L M N O P Q R S T U V W X Y Z

Carl Thomas - My First Love tab

--------------------------------------------------------------------
		     Carl Thomas - My First Love
--------------------------------------------------------------------

Tabbed by: R.Jay Orate

This is repeated throughout the whole song.

e|--------------------------------------------------|
B|---------------------------------4--x--4-----4\---|
G|---------4h6-------------6h8-----3--x--3-----3\---|
D|------4-------4-------6-------6--4--x--4-----4\---|
A|---------------------------------2--x--2--2-------|
E|---4-------------4/6------------------------------|


e|--------------------------------------------------|
B|---9--x--9--12--9--7--------7h9-------------------|
G|---8--x--8---------6-------------6----------------|
D|---9--x--9---------8-----8---------8--------------|
A|---7--x--7---------6--6---------------------------|
E|--------------------------------------------------|


legend:
h = hammer on
/ = slide up
x = mute/slap
\ = slide down
Tap to rate this tab
 
# A B C D E F G H I J K L M N O P Q R S T U V W X Y Z