Carl Verheyen - Topanga Hoedown tab

-------------------------------------------------------------------------------
			     Topanga Hoedown Ė Carl Verheyen
-------------------------------------------------------------------------------
Tabbed by: Tim Jones
Email: tim.m.jones@me.com

Tuning: EADGBe

e|-----------------------------------------------------------------------------|
B|-----------------------------------------------------------------------------|
G|-----------------------------------------------------------------------------|
D|-----------------------------------------------------------------------------|
A|--12----12--12---12--12-12----12---12--12------------------------------------|
E|--10----10--10---10--10-10----10---10--10------------------------------------|

e|---------------------------------------------------------------------------------|
B|---------------------15--------------------------------15------------------------|
G|-------------14---------14-16-14------------14----------14h16-14~----------------|
D|---------16-----16------------------------16-----16------------------------------|
A|-----17--------------------------------17----------------------------------------|
E|---------------------------------------------------------------------------------|

e|-----------------------------------------------------------------------------|
B|---------------------15------------------------------------------------------|
G|-------------14---------14-16-14---------------------------------------------|
D|---------16-----16-----------------17-16-14----------------------------------|
A|-----17-----------------------------------------17-12------------------------|
E|-----------------------------------------------------------------------------|

e|------------------------17--14b15r14-------------------------------------------|
B|-----------------------------------------17------------------------------------|
G|---------------------------------------------14-16br16p14--14------------------|
D|----------14h16h17----------------------------------------------16-------------|
A|------17-----------------------------------------------------------------------|
E|-------------------------------------------------------------------------------|

e|------------------------17--14b15r14-------------------------------------------|
B|-----------------------------------------17------------------------------------|
G|---------------------------------------------14-16br16p14--14-----14-----------|
D|----------14h16h17----------------------------------------------16-------------|
A|------17-----------------------------------------------------------------------|
E|-------------------------------------------------------------------------------|




e|-------------------------------15-17-15--------------------------------------|
B|---------------------15-17---------------------------------------------------|
G|-------------14-16-----------------------------------------------------------|
D|-----12-16-------------------------------------------------------------------|
A|-----------------------------------------------------------------------------|
E|-----------------------------------------------------------------------------|

e|-----------------------------------------------------------------------------|
B|--------------------15-------------------------------------------------------|
G|------------14---------14-16-14-----------16-----18-19-14--------------------|
D|--------16-----16-----------------------18-----18----------------------------|
A|----17-------------------------------19--------------------------------------|
E|-----------------------------------------------------------------------------|


e|-----------------------------------------------------------------------------|
B|-----------------------------------------------------------------------------|
G|----------------------18-14--------------------------------------------------|
D|-------------19--------------16-14-------------------------------------------|
A|---------19------------------------------------------------------------------|
E|-----17---------14-----------------------------------------------------------|



e|------------------------------------------------------------------------------|
B|------------------------------------------------------------------------------|
G|----3p0---------------------5p0-----3p2p0-------------------------------------|
D|--------------------0-3p0-------5-----------3h5-------------------------------|
A|------------------------------------------------------------------------------|
E|-----------3-6-7--------------------------------------------------------------|
        m       p p p   m p       m   p     m       p

e|-----------------------------------------------------------------------------|
B|------------------------------------------1-0--------------------------------|
G|----3p0---------------------10-9-7-0-----------------------------------------|
D|--------------------0-3p0---------------------3/5----------------------------|
A|-----------------------------------------------------------------------------|
E|-----------3-6-7-------------------------------------------------------------|
         m      p p p  m p        p m p m   p m  p


This is my interpretation of the chicken pickin riff in Carlís Topanga Hoedown. Itís a
work in progress but I just worked this part out (to the best of my ability) and thought
Iíd post it. Iíve noted when to pick and when to pluck using the middle finger with a p 
and m respectively. Hopefully someone finds this helpful. Feedback is welcome.

************************************

| /   slide up
| \   slide down
| h   hammer-on
| p   pull-off
| ~   vibrato
| +   harmonic
| x   Mute note
| b   Bend
| pb  Pre-bend
| br  Bend release
| pbr Pre-bend release
| brb Bend release bend

************************************
Tap to rate this tab
 
# A B C D E F G H I J K L M N O P Q R S T U V W X Y Z