Song name
# A B C D E F G H I J K L M N O P Q R S T U V W X Y Z

Carla Bruni - You Belong To Me tab

+++++++++++++++++++++++++++++++++
| Carla Bruni- You Belong To Me |
+++++++++++++++++++++++++++++++++



"Send me photographs and souvenirs..."


Tuning: EADGBe with CAPO on 1st fret!


Chords:

Em:  022000
F:   133211
Fm:  133111
F/G: 303211
G:   320003
Am:  x02210
C:   x32010
C7:  x32310
D7:  xx0212
Dm:  xx0231



Intro
1.
|--------------------------------------------------------------------------------|
|----1~-------------------------------------------1~---------------1~------------|
|-------0~--0~-0~--0~-----------------------------0h2~----0----------------------|
|-------0h2-0~-0h2-0~---0-------2~-4/5~--------3~-----------3-0h2~---------------|
|-3~------------------3------2~--------------------------------------------------|
|-------------------------0~-------------------------------------------3~--------|
  C                       Em                   F                C

Verse
"See the pyramids along the Nile..."
2.
|--------------------------------------------------------------------------------|
|----1~------------------------------0~-----------1~---------------1~------------|
|-------0~--0~-0~--0~-----------------------------0h2~----0----------------------|
|-------0h2-0~-0h2-0~---0-------2~-4/5~--------3~-----------3-0h2~---------------|
|-3~------------------3------2~--------------------------------------------------|
|-------------------------0~-------------------------------------------3~--------|
  C                       Em                   F                C

"Just remember darling..."
3.
|------------------------------------------------1~--1~---------------------------|
|---1~------------------1~------------0h1~-------3~--3~-----------------1~--------|
|------2~--1~--------------0~-----------------2~---------------------2~-----------|
|-3~-----------------2~------------2~------0~---------------------3~--------------|
|-----------------------------3-0~------------------------------------------------|
|--------------------------------------------------------------3~-----------------|
  F        Fm        Em         Am         Dm                  F/G

"See the marketplace in old Algiers..."
4.
|--------------------------------------------------------------------------------|
|----1~------------------------------0~-----------1~---------------1~------------|
|-------0~--0~-0~--0~-----------------------------0h2~----0----------------------|
|-------0h2-0~-0h2-0~---0-------2~-4/5~--------3~-----------3-0h2~---------------|
|-3~------------------3------2~--------------------------------------------------|
|-------------------------0~-------------------------------------------3~--------|
  C                       Em                   F                C
  
"Just remember till your dream appears..."
5.
|------------------------------------------------1~---------------------------------------|
|---1~------------------1~------------0h1~-------3~-----------------------------1~--------|
|------2~--1~--------------0~-----------------2~-----------------0~----------0~-----------|
|-3~-----------------2~------------2~------0~-------0-------------------0h2~--------------|
|-----------------------------3-0~-----------------------0h2-2h5-----3~-------------------|
|-----------------------------------------------------3~----------------------------------|
  F        Fm        Em         Am         Dm         G              C

Chorus
"Id be so lone without you..."
6.
|------------------------------2~--2~-------------------------------------------|
|-----1~-------------1~--------1~--1~---1~-------0~--0h3~-------------1~--------|
|-----3~--------1/2~--------------------------0~-------------------2~-----------|
|-2~---------------------------0~--0~---------------------------3~--------------|
|-3~----------------------------------------------------------------------------|
|---------------1~----------------------------3~-----------3-1~-----------------|
  C7            F              D7             G              F

Verse
"Fly the ocean in a silver plane..."
7.
|-----------------------------------------0~--------------------------------------|
|----1~------------------------------0~------------1~---------------1~------------|
|-------0~--0~-0~--0~------------------------------0h2~----0----------------------|
|-------0h2-0~-0h2-0~---0-------2~-4/5~---------3~-----------3-0h2~---------------|
|-3~------------------3------2~---------------------------------------------------|
|-------------------------0~--------------------------------------------3~--------|
  C                       Em                    F                C

"Just remember till you're home again..."
8.
|--------------------------------------------------------1~--------------------------------------|
|-------1~----------1~----------1~------------0h1~-------3~---------------------------1/5~-------|
|----2~----2~----1~----1~----------0~-----------------2~-----------------0~--------0~------------|
|-3~----------3~-------------2~------------2~------0~-------0-------------------2~----2/5~-------|
|-------------------------------------3-0~-----------------------0h2-2h5-----3~------------------|
|-------------------------------------------------------------3~---------------------------------|
  F           Fm             Em         Am         Dm         G              C

Bridge
9.
|-----------------------------------------0~--------------------------------------|
|----1~------------------------------0~------------1~---------------1~------------|
|-------0~--0~-0~--0~------------------------------0h2~----0----------------------|
|-------0h2-0~-0h2-0~---0-------2~-4/5~---------3~-----------3-0h2~---------------|
|-3~------------------3------2~---------------------------------------------------|
|-------------------------0~--------------------------------------------3~--------|
  C                       Em                    F                C

10.
|------------------------------------------------------1~------------------------------------|
|----1~-----------------------1~------------0h1~-------3~---------3~---------------1~--------|
|-------2~-------1~--------------0~-----------------2~---------4~----4~---------0~-----------|
|-3~-------3~--------------2~------------2~------0~-------0----------------0h2~--------------|
|-----------------------------------3-0~--------------------------------3~-------------------|
|-----------------------------------------------------------3~-------------------------------|
  F              Fm        Em         Am         Dm         G           C
 
Chorus
"Id be so lone without you..."
11.
|----------------------------------2~--2~--2~--2~------------------------------------|
|-----1~--1~--1~----1~----1~-------1~--1~--1~--1~--------------------------1~--------|
|-----3~--3~--3~----2~----2~-----------------------0~-------------------2~-----------|
|-2~-------------------------------0~--0~--0~--0~--------------------3~--------------|
|-3~---------------------------------------------------------------------------------|
|-------------------1~-----------------------------3~-----------3-1~-----------------|
  C7                F              D7              G              F

Verse
"Fly the ocean in a silver plane..."
12.
|-----------------------------------------0~--------------------------------------|
|----1~------------------------------0~------------1~---------------1~------------|
|-------0~--0~-0~--0~------------------------------0h2~----0----------------------|
|-------0h2-0~-0h2-0~---0-------2~-4/5~---------3~-----------3-0h2~---------------|
|-3~------------------3------2~---------------------------------------------------|
|-------------------------0~--------------------------------------------3~--------|
  C                       Em                    F                C

"Just remember till you're home again..."
13.
|------------------------------------------------------1~------------------|
|----1~-------1~--------------1~------------0h1~-------3~------------------|
|-------2~-------1~--------------0~-----------------2~-----------------0~--|
|-3~-------3~--------------2~------------2~------0~-------0----------------|
|-----------------------------------3-0~-----------------------0h2-2h5-----|
|-----------------------------------------------------------3~-------------|
  F           Fm           Em         Am         Dm         G

Outro
14.
|------------------------------------------------------------------------------|
|----1~------------------------------------------------1~----------------------|
|-------0~--0~-0~--0~--------0~----0~-------------0h2~-----2p0~------0~--------|
|-------0h2-0~-0h2-0~---0----2~----2~----------3~------------------3-----------|
|-3~------------------3----------------------------------------------3~--------|
|-------------------------0~---------------------------------------------------|
  C                       Em                   F                     C

15.
|-1~----------------------------------------------------------------------------0~--------|
|-------1------------1~------------0h1~-------3~-----------------------------1~-----------|
|-------1~--------------0~-----------------2~----2~------------0~---------0~--------------|
|-3~--------------2~------------2~------0~------------------0~-------0h2~-----------------|
|--------------------------3-0~------------------------0h2~-------3~----------------------|
|---------------------------------------------------3~------------------------------------|
  F     Fm        Em         Am         Dm          G             C


Please rate thanks!!!



Lyrics:

See The Pyramids 
Along the Nile
Watch the sun rise 
On a tropic isle
Just remember darling 
All the while
You belong to me...

See the market place 
In old Algiers
Send me photographs 
And souvenirs
Just remember 
Till your dream appears
You belong to me....

I'll be so alone 
Without you
Maybe 
You'll be lonesome too 
And blue

Fly the ocean 
In a silver plane
See the jungle 
When its wet with rains
Just remember 
Till you're home again
Or until I come home to you
You belong to me... 



+++++++++++++++++++++++++++++++++
| Raileff                       |
| Underground__Dora@Hotmail.Com |
+++++++++++++++++++++++++++++++++
Tap to rate this tab
 
# A B C D E F G H I J K L M N O P Q R S T U V W X Y Z