Song name
# A B C D E F G H I J K L M N O P Q R S T U V W X Y Z

Carlos Baute - Colgando En Tus Manos chords


                              This is my first tab, the sound is really great. Sorry i 
speak english very well ^^' I CREATED THIS TAB, NO COPY.

       F#                 C#               D#m

e-------------------------------------------------------|
B--------------------------6----------------7-----------|
G------------3-----------6---------------8--------------|
D---------4------------6--------------8-----------------|
A------4------------4--------------6--------------------|
E---2---------------------------------------------------|

e-------------------------------------------------------|
B-------------------------------------------------------|
G-------------------------------------------------------|
D----------9-----------------------11-------------------|
A------9-------9--------------11--------11--------------|
E---7----------------------9----------------------------|
Tap to rate this tab
 
# A B C D E F G H I J K L M N O P Q R S T U V W X Y Z