Song name
# A B C D E F G H I J K L M N O P Q R S T U V W X Y Z

Carlos Baute - Colgando En Tus Manos tab

-------------------------------------------------------------------------------
			     COLGANDO EN TUS MANOS - Carlos Baute
-------------------------------------------------------------------------------
Tabbed by: Kirk119
Email: smunozv32@hotmail.com

Tuning: Standard

x2
e|-----------------------------1---------------------------------------------|
B|------------------1--------3-3---------------------------------------------|
G|-------2--------0-0------2------------3------5-----------------------------|
D|-----3-3------2--------0------------3---3---5-5----------------------------|
A|---3--------3---------------------1-------3--------------------------------|
E|-1-------------------------------------------------------------------------|

Tap to rate this tab
 
# A B C D E F G H I J K L M N O P Q R S T U V W X Y Z